Urma - Wishlist

  • (11 voturi)
  • Contribuție:  anonim170
Intro:

E|---------------------|
B|------3-----3-----3--|
G|----0-----0-----0----|
D|--2-----2-----2------|  X2
A|---------------------|
E|---------------------|

E|---------------------|
B|------3-----3-----3--|
G|----0-----0-----0----|
D|--0-----0-----0------|
A|---------------------|
E|---------------------|

E|---------------------|
B|------3-----3-----3--|
G|----2-----2-----2----|
D|--0-----0-----0------|
A|---------------------|
E|---------------------|


Em7 Cadd9 G6 Dsus2 

Verse:

                  Em7
A little room for you and me
                 Cadd9
A better way for me to be
                   G6
The silver ring on my left hand
                  Dsus2 
A child to give a bit of sense
                 Em7 
A little rush to warm the blood
                       Cadd9
Some peace of mind for me to hold
                 G6 
A day of rest to cool the brakes
                 Dsus2 
A meaning for my damn mistakes


Chorus:
             Em7            Cadd9
Well... it's taking too long
         G6              Dsus2
And it's taking me all...
         Em7                Cadd9
And it's taking too much...
          G6                Dsus2   
So I blame... lack of touch
              
The touch of my best friend


E||-------------------------|-----------------------------|
B||-------------------------|-----------------------------|
G||-------------------------|-----------------------------|
D||-------------------------|-----------------------------|
A||--2/12--12-12-12--12-12--|---2/12--12-12-12--12-12h14--|
E||-------------------------|-----------------------------|

E||--------------------------|---------------||
B||--------------------------|---------------||
G||--------------------------|---------------||
D||--------------------------|---------------||
A||---2/12--12-12-12--12-12--|-----3-2-------||
E||--------------------------|---------3-2---||
 

Verse:               

                 Em7
A silent nest to hear myself
                   Cadd9 
One way to love my gods again
                       G6
Your smile to keep the trouble out
                       Dsus2
A friend to reach when I am down
              Em7
A dear mother waiting home
                   Cadd9 
The coffee flavour down the hall
                     G6 
Few simple words "My son, you're great,
                      Dsus2
you bring me joy with what you make..."


Chorus:

             Em7             Cadd9
Well... it's taking too long
         G6              Dsus2
And it's taking me all...
         Em7               Dsus2
And it's taking too much...
          G6               Dsus2
So I blame... lack of touch

The touch of my best friend 

Solo:

E||----------------------------|---------------------------|
B||----------------------------|---------------------------|
G||----------------------------|---------------------------|
D||--------0h2-2--2-2h0-0------|-------0h4-4--4-4h2-2------|
A||---3-2-----------------2-2--|---3-2----------------2-2--|
E||----------------------------|---------------------------|

E||---------------------------|---------------||
B||---------------------------|---------------||
G||---------------------------|---------------||
D||-------0h2-2--2-2h0-0------|---------------||
A||---3-2----------------2-2--|-----3-2-------||
E||---------------------------|---------3-2---||

Se reiau prima strofa si refrenul.

Em7:   022030
Cadd9: 032030
G6:    320030
Dsus2: xx0230

Acordurile sunt transpunse de TheFly, restul - de Charlie
  • Mhstnsc
    28 septembrie 2019 14:15
    J-letring J-ring-and-mute pauza S SJ J JS
3755d0241ef9a7992a700fb647e548ef
6Ld5REUUAAAAAA1PBEDya2BDGnf5rYKeKnmYm4Cz