Valeriu Sterian - Iluzia unei insule

	(acordurile sunt pentru chitara 1
	tabulaturile sunt pentru chitara 2; la tabulaturi sunt trecute, în partea de sus, acordurile pe care le cântă chitara 1

	sper că nu am greșit prea tare tabulaturile :)
	B/B7 înseamnă că se poate cânta, în funcție de preferință, si major sau si7

	capo pe tasta 1)

Intro : Riff pe 2x      Em D B/B7 Em

                                                     
--------------------|---------------------|----------------|----------
--------------------|---------------------|----------------|----------
--------------------|---------------------|----------------|----------
-----5-4------------|---------------------|----5-4---------|----------
--7--------7-5---5--|---5-7---7-5-7-5-----|-7-------7-5-5--|---5-7--7-
--------------------|-7---------------7---|----------------|-7--------

                     
Diseară-i plecarea în insula mea 
   B                  Em
Trăsura de nuc te așteaptă la scară 
Em                     B
Ia-ți haine mai groase și nu-ntârzia 
   B                  Em
Căci câini polițiști s-ar putea să apară

              D          G           D             B7
------------|----------|------------|-------------|------------|-----------
------------|----------|------------|-------------|------0-----|-----------
------------|----------|-0-----0--0-|-------------|----2-------|-----------
------------|----------|------------|-4---4-3-2-1-|--------1---|-----------
-------2--5-|--5-4-3-2-|----2-------|-------------|----------2-|-0---------
-0-2h3------|----------|------------|-------------|------------|---3-2-----

	(versurile care urmează se pot cânta pe riff-ul de mai sus sau pe acordurile D, G și B7, după cum urmează)

                       
Nu-ți face probleme, birjarul e mort 
                        
Și caii sunt morți și trăsura e moartă 

	(lovit scurt B7 și apoi)

-----------
-----------
-----------
-----------
-0---------
---3-2-----

  Em       D          B7          Em
Fugim fără martori în nu știu ce port 
  Em       D          B7          Em
În insula mea la cinci capete sparte
  Em       D          B7          Em
Nu-ți face probleme, birjarul e mort 
  Em       D          B7          Em
Și caii sunt morți și trăsura e moartă
 
 Em                   D                    B/B7             Em
--------------------|---------------------|----------------|----------
--------------------|---------------------|----------------|----------
--------------------|---------------------|----------------|----------
-----5-4------------|---------------------|----5-4---------|----------
--7--------7-5---5--|---5-7---7-5-7-5-----|-7-------7-5-5--|---5-7--7-
--------------------|-7---------------7---|----------------|-7--------

Acolo vom crește copii monstruoși
Lachei de metal și de mâzgă vor râde
cu vești ne-or ticsi de la moși și strămoși
Tic-tac telegraful, cadavrelor ude.

Vom trage trei filme color de deochi
Și le vom trimite în lume de-a randul

ca-n sticle bagîndu-le în câte un ochi,
Al patrulea ochi pentru casă pastrîndu-l.
Vom trage trei filme color de deochi
Și le vom trimite în lume de-a rândul

 Em                   D                    B/B7             Em
--------------------|---------------------|----------------|----------
--------------------|---------------------|----------------|----------
--------------------|---------------------|----------------|----------
-----5-4------------|---------------------|----5-4---------|----------
--7--------7-5---5--|---5-7---7-5-7-5-----|-7-------7-5-5--|---5-7--7-
--------------------|-7---------------7---|----------------|-7--------

 Em              D                      B/B7   Em
-----------------|---------------------|---------------|-------------
----8---7--------|---------------------|----8---7------|-------------
-9--------9-7--7-|--7-9----9---7-9-7---|-9--------9-7-7|---7-9---9--- 
-----------------|9-----------------9--|---------------|-9-----------    
-----------------|---------------------|---------------|-------------
-----------------|---------------------|---------------|-------------

----------------------------|-----------------------------|-------------------------|------------------|------------------------------
----------------------------|-----------------------------|--12-12-12-12-12-10--10--|-----10-----------|------------------------------
9-7-7-----------------------|--------------------7-7-9-9-9|-9-----9-----9-----12--12|11-12--12-11-12-11|9-11-9-7-9-7-7----------------
---9-9-7-9-7-7-9-7------- --|-----------7-7-9-7-9-9-------|-------------------------|------------------|------------9-9-7-9-7-7-------
------------------9-7-6-7-7-|6-7-9-9-7-9-9----------------|-------------------------|------------------|---------------------9-9-7-6-7
----------------------------|-----------------------------|-------------------------|------------------|------------------------------

Nu-ți face probleme - e mijlocul verii
E mijlocul iernii, ciudată poveste
Iar când vei urca e-n zadar să te sperii
Trăsura ca moartă părîndu-ți ca este...

E numai iluzie, dincolo-s eu
Te-aștept cu făclii 4600

Zadarnic te sperii că ninge mereu
Că străjile drumului fumegă mute
E numai iluzie, dincolo-s eu
Te-aștept cu făclii 4600

 Em                   D                    B/B7             Em
--------------------|---------------------|----------------|----------
--------------------|---------------------|----------------|----------
--------------------|---------------------|----------------|----------
-----5-4------------|---------------------|----5-4---------|----------
--7--------7-5---5--|---5-7---7-5-7-5-----|-7-------7-5-5--|---5-7--7-
--------------------|-7---------------7---|----------------|-7--------

 Em              D                      B/B7   Em
-----------------|---------------------|---------------|-------------
----8---7--------|---------------------|----8---7------|-------------
-9--------9-7--7-|--7-9----9---7-9-7---|-9--------9-7-7|---7-9---9--- 
-----------------|9-----------------9--|---------------|-9-----------    
-----------------|---------------------|---------------|-------------
-----------------|---------------------|---------------|-------------
 
Hai vino și urcă și spune ceva
Birjarul e mort, are sânge de cârjă
Te-aștept fără martori în insula mea
Port haide de nuc, sunt aproape o birjă

Și dacă nu-mi vezi fața ce mi-am găsit-o
Să știi că în insula mea totuși sunt, eu

Movila celui mai proaspăt mormânt
Întinde piciorul și calcă, iubito
Și asta e totul, plecarea-i diseară
Fantoma trăsurii așteaptă la scară

 Em                   D                    B/B7             Em
--------------------|---------------------|----------------|----------
--------------------|---------------------|----------------|----------
--------------------|---------------------|----------------|----------
-----5-4------------|---------------------|----5-4---------|----------
--7--------7-5---5--|---5-7---7-5-7-5-----|-7-------7-5-5--|---5-7--7-
--------------------|-7---------------7---|----------------|-7--------

 Em              D                      B/B7   Em
-----------------|---------------------|---------------|-------------
----8---7--------|---------------------|----8---7------|-------------
-9--------9-7--7-|--7-9----9---7-9-7---|-9--------9-7-7|---7-9---9--- 
-----------------|9-----------------9--|---------------|-9-----------    
-----------------|---------------------|---------------|-------------
-----------------|---------------------|---------------|-------------

... Hop Hop Hei Hei .. ou ou ...