Vama Veche - Armata (intro)

Intro pentru piesa Armata(am sa ma intorc barbat)

-------------------------------
-------------------------------
-------------------------------
-----------0--2----------------
-----2----2--0--------32-------
--0-3--23-------0--00---3------

--------7---------------------10---12--------12-10-8-7--7-8---8-7-----
------8----------7-8--8-10-12----12--12-10-12---------------9-----7---
-9--9-----8--8-9------------------------------------------------------
----------------------------------------------------------------------
----------------------------------------------------------------------
----------------------------------------------------------------------
6Ld5REUUAAAAAA1PBEDya2BDGnf5rYKeKnmYm4Cz
14417d73b4a6b8fbfc74bb66ec712c97