Vama Veche - Nu ne mai trageti pe dreapta

  • (5 voturi)
  • Contribuție:  anonime
A
Am baut e adevarat se-ntampla oricui
D                       G
dar domnu' politist eu nu sunt beat,
D                                Em
O votca mica-am luat

Tine fiola sufla-n ea
Stai nu te dezechilibra, lasa-mi domle sapca
Nu mai bea, te rog eu nu mai bea

Am baut e adevarat se-ntampla oricui
dar domnu' politist eu nu sunt beat,
O votca mica-am luat

G                       D       
Domnu' politist m-am turmentat m-am turmentat
        A                       D
Stiu ca e pacat, dar mi-sa intamplat
Vreau sa am carnet si pa viitor si pa viitor
Asa ca va implor, va rog eu va implor :

G     D       A       D       A
Nu ne mai trageti pe dreapta :/2

N-am nici acte din pacate, 
la nevasta-mea sunt toate
Actu' de ebrietate , e tot la ea

Pot sa-ti fac proces verbal,
pot sa-ti fac dosar penal
Da-s politist bestial ,da sunt bestial
:/

R1

R2

Te rog eu ca nu mai fac
Lasa-ma sa-ajung in pat
Am spaga de dat :/


N-am nevoie ba de spaga
Spaga-am luat o viata-ntreaga
Tine tu si spaga mea, dui-o lu' nevasta-ta
:/

R1 - R2 :/4

(Atentie la ritm)
  
Outro Solo (electric guitar w/overdrive):

   D                A                 D
e------------------------------------------
B------------------------------------------
G------7-9/11-11/12-9~~------7-9-9/11-7~~--
D--7-9-------------------7-9---------------
A------------------------------------------
E------------------------------------------

   D                A                 D           D5
e-----------------------------------------------------
B-----------------------------------------------------
G------7-9/11-11/12-9~~------7-9-9/11-7-7-7--7-7--7---
D--7-9-------------------7-9------------0-0--0-0--7---
A-------------------------------------------------5---
E-----------------------------------------------------

/  = slide
~~ = tremolo
ea01d3ed82f4ab090f976d753790fc31
6Ld5REUUAAAAAA1PBEDya2BDGnf5rYKeKnmYm4Cz