Vanghele Gogu - Ninsoarea de adio/ Siciliana

  • (1 voturi)
  • Contribuție:  Radu.
  • Ultima actualizare: 19.10.2017
Ceea ce urmeaza sa scriu este varianta de intro cantata de Valentin Moldovan, 
ritmul il prindeti din melodie. 

e|-----99999--10-9-7-------7-------------------------7------------------------------
B|-7------------------10------10-10-10-10-10--9-7-7-----10---99999-7------7-9-------
G|-------------------------------------------------------------------9-9------9-----
D|----------------------------------------------------------------------------------
A|----------------------------------------------------------------------------------
E|----------------------------------------------------------------------------------


                            Acorduri:     F#m      C#m       E
e|-----------------------|----------------9--------4---------0----------------------
B|--77777------7-7-------|----------------10-------5---------0----------------------
G|----------9------------|----------------11-------6---------1----------------------
D|-----------------------|----------------11-------6---------2----------------------
A|-----------------------|-----------------------------------2----------------------
E|-----------------------|-----------------------------------0----------------------

Ritmul este sacadat Jos-Sus.


   F#m
1. Aseara, cand ne desparteam, aseara,
E
Tot mai era un pic de primavara...
F#m
Si-acum arunca ochii pe fereastra
E
A viscolit pe despartirea noastra.
F#m
Distanta s-a-nmultit cu alb de moarte
E
Departe s-a facut foarte departe,
F#m
Si ninge-acum ninsoare mare
E
Ninsoare de sfarsit de calendare.

R: Si ochii nu mai au ce sa mai vada,
Doar urme de jivine prin zapada,
De ocna-i viscolul ce-mi arde rana
Si-ascult de sub zapezi Siciliana

2. Si vor veni dezastre de tot felul
Precum m-anunta trist violoncelul,
Si harpa, si pianul ma omoara,
Reverberandu-mi fulgii de afara.
Mai latra undeva, de frig, un caine...
Dar tu ce faci in ziua fara maine?
De fapt, de ce te-ntreb, cand eu, din mine,
Mi-am interzis sa stiu ce-i rau sau bine...

3. Si a venit ninsoarea alb-albastru
Sa parafeze totul cu dezastru,
Sa iasa lupii, agentii foamei sure,
Din fiecare palcuri de padure...
Sa vina prin orase mari dihanii,
Si caii aburind sa traga sanii,
Si posta, in aceste vremuri stranii,
Sa-ntarzie cu lunile si anii.

4. Sa vezi si tu ce strigat tragic este
Sa nu mai dai de tine nicio veste!
Deocamdata ninge praf pe raza
Si drumurile noastre se blocheaza...
Nici nu mai stiu de-i noapte sau de-i ziua...
E doar ninsoarea noastra de adïo...

Spor! :D
  • maverick
    11 iunie 2014 08:59
    Pe aproape soloul .... :D cat si tabulatura ... piesa in original e din F#m cu D , doar 2 acorduri...daca o faci din Em o faci tot cu D , acel Bm nu isi are rostul acolo dar la urma urmei e cover si il faci cum vrei , http://www.tabulaturi.ro/acorduri.php?tab_id=9642
6Ld5REUUAAAAAA1PBEDya2BDGnf5rYKeKnmYm4Cz
46968f461637f33b65833749c69dfc55