Vasile Mardare - Cabana

  • (13 voturi)
  • Contribuție:  valpop
  • Ultima actualizare: 30.06.2012
Am              Dm
O cabana in munti, o cabana de lemn
          G                 C     E     
Cu un foc strecurat in butucii de lemn
        Am              F
Si un vaiet iesind din padurea de lemn
         C                        E
Si cu ursii traversand o podisca de lemn

       Am              Dm
Parc-asa a si fost nu demult undeva
        G               C       E    
Te iubeam, ma iubeai, viata ta, viata mea
        Am              F     
Ma rugai sa privesc, ma rugai sa ascult
         C                      E
Caprioare venind dintr-un basm de demult

R :
         Am              F        G          C
Si intr-o zi am aflat de-o cabana care-ar fi ars
         Am                   F         Rem     E
Mi-a fost greu sa si cred ca e vorba de acel adapost
         Am              F     G         C   
Nici nu stiu daca e casa mica in care-am fost
          Am                  F        E          Am
Iar de-ar fi sa pot sti n-ar avea, n-ar avea nici un rost

Chitara
     Am                   E                    Am                 
       
E||-----------0--------|-----------0--------|-----------0--------|
B||--------1-----1-----|--------0-----0-----|--------1-----1-----|
G||-----2-----------2--|-----1-----------1--|-----2-----------2--|
D||--------------------|--------------------|--------------------|
A||--0-----------------|--------------------|--0-----------------|
E||--------------------|--0-----------------|--------------------|


  E                     Am                   Dm                 
   
--0----------------||------------0--------|-----------1--------|
-----0-------------||---------1-----1-----|--------3-----3-----|
--------1----------||*-----2-----------2--|-----2-----------2--|
-----------2-------||*--------------------|--0-----------------|
-------------------||---0-----------------|--------------------|
--0----------------||---------------------|--------------------|


  G                    C        E           Am                 
     
-----------3--------|--------------------|-----------0--------|
--------0-----0-----|--------1--------0--|--------1-----1-----|
-----0-----------0--|-----0--------1-----|-----2-----------2--|
--------------------|--------------------|--------------------|
--------------------|--3-----------------|--0-----------------|
--3-----------------|-----------0--------|--------------------| etc...
  • stefansv
    9 noiembrie 2012 13:50
    Cu siguranta vasile acordeaza normal chitara. Cu vocea o ia mai de jos, e adevarat.
  • npuiu
    24 octombrie 2012 18:00
    http://www.youtube.com/watch?v=nz0Y4jLhxzE&feature=player_detailpage
    Sentimentul ca Vasile Mardare foloseste acordarea chitarei in D diez(deci mai jos cu un semiton decat acordarea in E.
    Felicitari,mie imi suna varianta ta cel mai bine cu mentiunea de mai sus.
6Ld5REUUAAAAAA1PBEDya2BDGnf5rYKeKnmYm4Cz
ae49756b7030499fccff235ddc833e73