Vasile Șeicaru - Antiprimavara

  • (1 voturi)
  • Contribuție:  anonim924
Am                         Dm   
   Ce daca vine                 primavara                    
E||--------------0-----------|--------------1-----------|
B||--------1-----------1-----|--------3-----------3-----|
G||-----2-----2-----2-----2--|-----2-----2-----2-----2--|
D||--------------------------|--0-----------------------|
A||--0-----------------------|--------------------------|
E||--------------------------|--------------------------|


  G                          C                        
   Atata iarna e in         noi
--------------3-----------|--------------0-----------|
--------0-----------0-----|--------1-----------1-----|
-----0-----0-----0-----0--|-----0-----0-----0-----0--|
--------------------------|--------------------------|
--------------------------|--3-----------------------|
--3-----------------------|--------------------------|


  Am                         Dm   
   Ca martie se poate       duce                    
--------------0-----------|--------------1-----------|
--------1-----------1-----|--------3-----------3-----|
-----2-----2-----2-----2--|-----2-----2-----2-----2--|
--------------------------|--0-----------------------|
--0-----------------------|--------------------------|
--------------------------|--------------------------|


  E7                          Am    
  Cu toti cocorii             inapoi                    
--------------0-----------|--------------0-----------||
--------3-----------3-----|--------1-----------1-----||
-----1-----1-----1-----1--|-----2-----2-----2-----2--||
--------------------------|--------------------------||etc 
--------------------------|--0-----------------------||
--0-----------------------|--------------------------||

Am               Dm
Ce dacă vine primăvara
G                 C
Atâta iarnă e în noi
Am                Dm
Că martie se poate duce
E7                 Am
Cu toţi cocorii înapoi

În noi e loc numai de iarnă
Vom îngheţa sub ultim ger
Orbecăind pe copci de gheaţă
Ca un stingher spre alt stingher.
	 
	A                 Dm
	Primăvară, care-ai fost
	G                      C
	Nu veni, n-ai nici un rost
	Am                    Dm
	Poţi să pleci suntem reci
	E7              Am  
	Iarnă ni-i  pe veci.

şi vin din patriile calde
Cocorii toamnei ce trecu
şi cuibul li-i stricat la streşini
şi lângă mine nu eşti tu

Schimbări mai grave decât moartea
Au fost şi sunt şi vor mai fi
La mine-n suflet este vifor
şi vin nebuni să facă schi.

şi ninge până la prăsele 
Ninsoarea-mi intră-n în trupul tot
E-un dans de oameni de zăpadă
Ce îmbrăţişarea n-o mai pot

La noi e iarnă pe vecie
Doi foşti nefericiţi amanţi
Ia-ţi înflorirea, primăvară
şi toţi cocorii emigranţi.


E7 - 022130 

Nu stiu daca e varianta originala dar suna mai bine decat cea in E :D
  • Loverman
    11 mai 2008 02:30
    Adica asa:
    Am Dm
    Că martie se poate duce
    E E7 Am
    Cu toți cocorii înapoi
    (si la refren la fel)
  • Loverman
    11 mai 2008 02:28
    nu stiu cum iti suna tie, dar sefu... la refren e La minor toata ziua daca vrei sa o iei asa... (si nu cred ca era nevoie de indicatie la mi7:)))
    si daca nu stii cum e varianta originala iti recomand sa o cauti si sa o asculti cu atentie pana scoti acordurile din ea (chiar daca nu te tine vocea...macar sa mearga chitara) apoi transpune-o unde poti sa o canti cap coada... iar la mi7 ai 2 masuri, iti recomand sa le prinzi E si E7 ca sa dea mai bine la ciupeala...