Vasile Șeicaru - Aruncarea in valuri

  • Contribuție:  cnv_xyz
  • Ultima actualizare: 10.03.2010
Ciupitura pe strofa : 
              E                      B7                         E 
1.----------------0---------------------------1-----------------0------------
2.-------------0------0-------------------0------------------0------0--------
3.-------2--2------------0--------2---2---------------2--2--------------0-----
4.-----------------------------------------------------------------------------
5.-----2-----------------------2--------------------2---------------------------
6.------------------------------------------------------------------------------


Pe al doilea vers ciupitura e ca pe E.   Adica : bass + 332123 ( unde 3 = degetul 
aratator ; 2 degetul mijlociu ; 3 = inelar ; si basut cu degetul mare. Si degetul 3 pe 
coarda 3; degetul 2 pe coarda 2 etc ... si basut la coarda 5 . 
La al treilea la fel. 
Si la al 4-lea e :
Se tine ciupitura de pe strofa a 3-a si pe a 4 si la tarmului schimbi asa : 
              B7         E          
1.----------------1----------------0---------------
2.------------0----------------0------0------------
3.-----2--2-------------2---2------------0---------
4.-------------------------------------------------
5.---2---------------2-----------------------------
6.-------------------------------------------------


E                  B7          E
Iubita mea, sa ne-aruncăm în mare,
A                       E
Împleticiţi în sare şi guvizi
A                           E
Sa fie marea templul nunţii noastre
               B7          E
Pe urma, usa tarmului s-o-nchizi


Iubita mea, te-ai îmbracat în alge
şi te sarut cu univers cu tot
Pe zarea sfasiată de pacate
Plutim razand, şi ne iubim inot
	
Pe refren cam asta ar fi : dar suna aproximativ ca melodia originala numa ca acolo mai 
sunt si alte instrumente. Daca o cantati fara winamp numa cu chitara si voce suna bine 
ok :) .
	A
  R : 	Iubita mea, să ne-aruncam în mare
	                          E
	Si să traim în mare neinfrant
                                 B7
	Sa ne luam dacă doreşti la vară
                                  E
	Trei saptamani concediu pe pamant


Ti-am spus de mult că pe pamant sunt rele
Si-am spus că marea-i capataiul meu
Ti-am pregatit o flotă scufundată
Si-o nunta, pe-un vapor de minereu



Iubita mea să devenim acvatici
Pamantul care suntem ni-i destul
Satula esti de cele pamantene
De cele pamantene, sunt satul.

 R :  

Ne vor privi prin sute de binocluri
Se vor uita ca la un alt prapad
Mirandu-se că doi fusesem parcă
şi ei pe mare numai unul văd


Dar nu-i nimic, le vom plăti aceasta
Vom reveni în anul 2000
Cu plete-ncaruntite mult de sare
Si-n brate cu o mare de copii

R x 2

Spor la zdranganit !