Vița de Vie - Alungă tăcerea (acustic)

  • (1 voturi)
  • Contribuție:  andinomm
  • Ultima actualizare: 07.04.2020
Vita De Vie - Alunga Tacerea (acustic)
Asta e un tab cam cum o cant eu,
imi pare destul de accurate cu versiunea originala.
O cant finger-pick.

Le-am dat un nume acordurilor de pe refren pentru a le putea
pune prin versuri sa prindeti ideea/ritmul.
Nu sunt neaparat numele corecte (poate nu e chiar maj7/add9 caci lipsesc trepte).


Intro:						Cadd9    Aadd9
E||---------------------|-------------------|--------------------|
B||--66-8p6---55--3p1---|-66--------33--2p0-|----3---------------|
G||--00-------00--------|-00--3s5---00--1p0-|----0-------4-------|
D||---------------------|-------------------|------------2-------|
A||--666------333-------|-66--1s3-----------|----3-------0-------|
E||---------------------|-----------33-3----|--------------------|

Refren:
     Em7 G   Cmaj7 Aadd9(2)					
E||-----------------------|
B||--33--33--00----00-----|
G||--00--00--00----22-----|
D||-----------------------|
A||----------33----00-----|
E||--00--33---------------|


Cadd9            Aadd9
Adu-ti aminte de primele cuvinte
Cadd9		Aadd9
Invatate in doi, uitate apoi
Cadd9		Aadd9
De juraminte si primele instincte
Cadd9		  Aadd9
Dezlegate de noi, pierdute in noroi

(La fel)
Intelegi tot ce nu s-a spus
Si ma faci sa ma simt in plus
Cand vrei sa-mi ierti
Ca sa poti sa ma certi
Poate ca piatra din mana ta, E aruncata de altcineva
Si n-a nimerit fiindca tu te-ai ferit!

Em7	G      Cmaj	  Amaj7(2)   Em7 
	Alunga tacerea si cere-mi ce vrei
G          Cmaj7             Amaj7
Dar stinge durerea din ochii mei!
Em7	G        Cmaj	   Amaj7(2)     Em7
	Aduna-ti otrava si incearca s-o bei
G          Cmaj7      Cmaj7
Mai mult decat vina, Nu poti sa-mi iei!

(La fel)
Aduti aminte ca sufeltul nu simte
Doar ce ar trebui si poate muri
De aroganta si lipsa de speranta
In fiecare moment, trecut sau prezent.
Am crezut ca m-am vindecat
Cand eu de fapt m-am infectat, Cu inima ta si cu ceata din ea.
Un gol atat de plin de chin, Sunt un leac plin de venin
Un urlet tacut, amarat si cazut!
Alunga tacerea si cere-mi ce vrei
Dar stinge durerea din ochii mei!
Aduna-ti otrava si incearca s-o bei
Mai mult decat vina, Nu poti sa-mi iei! 

Alunga tacerea si cere-mi ce vrei
Dar stinge durerea din ochii mei
Aduna-ti otrava si incearca s-o bei
Mai mult decat vina
Nu poti sa-mi iei!
18789bb250fd962c3c16a1a55d3bd452
6Ld5REUUAAAAAA1PBEDya2BDGnf5rYKeKnmYm4Cz