Vița de Vie - Basul si cu toba mare

  • (1 voturi)
  • Contribuție:  Guitar Hero
riff 1                                                    
E||-----------------------|-----------------------|-------------|
B||-----------------------|-----------------------|-------------|
G||--9-------12-----9-12--|--11-------9-11-12--9--|--11---------|
D||-----------------------|-----------------------|-------------|
A||-----------------------|-----------------------|-------------|
E||-----------------------|-----------------------|-------------|




riff 2:
-------------------|---------------------|---------------------||
-------------------|---------------------|---------------------||
-------------------|---------------------|---------------------||
---5-5-6-----------|-----5----3--5--3----|---5-5--6-5----------||
---5-5-6-----------|-----5----3--5--1----|---5-5--4-5----------||
---3-3-4-----------|-----3----1--3--1----|---3-3--4-3----------||