Vița de Vie - Ca un clovn

  • (1 voturi)
  • Contribuție:  Gabi.
  • Ultima actualizare: 11.01.2012
Intro
e|------------------------------------------------------------
B|------------------------------------------------------------
G|------------------------------------------------------------
D|---------------------------2-2------------------------------
A|--0-0--0-3-3--3-3-0-0-2-0------3----0-0--0-3-3--3-3-0-0-2-0-
D|--0-0--0-3-3--3-3-0-0-2-0-----------0-0--0-3-3--3-3-0-0-2-0-

-----------------------------------------------------------------------------
-----------------------------------------------------------------------------
-0-0-------------------------------------------------------------------------
----------------------------------2-2----------------------------------------
-----3---0-0--0-3-3--3-3-0-0-2-0------3---0-0--0-3-3------------------7-7-3--
---------0-0--0-3-3--3-3-0-0-2-0----------0-0--0-3-3----3-3-3-2-2-0-0--------

Verse 1
e|---------------------------------------------
B|---------------------------------------------
G|---------------------------------------------
D|----------------------------3----------------
A|----------------------------3----------------
D|--0-x8--3-x5--0-3-5----0-x7-3--3-x7----------

Chorus 1
e|----------------------------------------------------------------0-----
B|----------------------------------------------------------------3-----
G|----------------------------------------------------------------2-x10-
D|--5-----3~--3-3-3-3-3-3--3-0---3~--3-3-3-3-3-3--3-5-5-5----0~---0-----
A|--5-x4--3~--3-3-3-3-3-3--3-0---3~--3-3-3-3-3-3--3-5-5-5----0~---------
D|--5-----3~--3-3-3-3-3-3--3-0---3~--3-3-3-3-3-3--3-5-5-5----0~---------

------0------------------------------------------------------------------------
------3------------------------------------------------------------------------
------2-x10--------------------------------------------------------------------
-0~---0-------3~--3-3-3-3-3-3--3-0---3~--3-3-3-3-3-3--3-5-5-5------------------
-0~-----------3~--3-3-3-3-3-3--3-0---3~--3-3-3-3-3-3--3-5-5-5-----INTRO AGAIN--
-0~-----------3~--3-3-3-3-3-3--3-0---3~--3-3-3-3-3-3--3-5-5-5------------------

Verse 2
e|---------------------------------------------
B|---------------------------------------------
G|---------------------------------------------
D|----------------------------3----------------
A|----------------------------3----------------
D|--0-x8--3-x5--0-3-5----0-x7-3--3-x7----------


Chorus 2
e|----------------------------------------------------------------0-----------0----
B|----------------------------------------------------------------3-----------3----
G|----------------------------------------------------------------2-x10-------2-x10
D|--5-----3~--3-3-3-3-3-3--3-0---3~--3-3-3-3-3-3--3-5-5-5----0~---0------0~---0----
A|--5-x4--3~--3-3-3-3-3-3--3-0---3~--3-3-3-3-3-3--3-5-5-5----0~----------0~--------
D|--5-----3~--3-3-3-3-3-3--3-0---3~--3-3-3-3-3-3--3-5-5-5----0~----------0~--------

-----------------------------------------------------------0-----------0--------
-----------------------------------------------------------3-----------3--------
-----------------------------------------------------------2-x10-------2-x10----
---3~--3-3-3-3-3-3--3-0---3~--3-3-3-3-3-3--3-5-5-5----0~---0------0~---0--------
---3~--3-3-3-3-3-3--3-0---3~--3-3-3-3-3-3--3-5-5-5----0~----------0~------------
---3~--3-3-3-3-3-3--3-0---3~--3-3-3-3-3-3--3-5-5-5----0~----------0~------------

Solo
e|-----------------------------------------------------------------------------------
B|-----------------------------------------------------------------------------------
G|-----------5-5-5-2-2-----------2-2--------------------5-5-5-2-2-----------2-2------
D|---3-3-3-3-----------3-3-3-5-5-------x2------0-0-0-0-------------3-3-3-5-5------x2-
A|-----------------------------------------------------------------------------------
D|-----------------------------------------------------------------------------------

Outro
e|-------------------------------------------------------------------
B|-------------------------------------------------------------------
G|-------------------------------------------------------------0-0---
D|---------------------------2-2-------------------------------------
A|--0-0--0-3-3--3-3-0-0-2-0------3----0-0--0-3-3--3-3-0-0-2-0------3-
D|--0-0--0-3-3--3-3-0-0-2-0-----------0-0--0-3-3--3-3-0-0-2-0--------

----------------------------------------
----------------------------------------
----------------------------------------
---------------------------2-2----------
--0-0--0-3-3--3-3-0-0-2-0------3---0-0--
--0-0--0-3-3--3-3-0-0-2-0----------0-0--



Tabs by Gabi. :) enjoy

Cred ca am unele greseli. Vreau sugestii :D. Have fun!.