Vița de Vie - Fraier ca tine (Guitar Pro)

Versiunea completă în Guitar Pro 6

Chitara 1:
=================================

E |----------------------------------------------------|
B |----------------------------------------------------|
G |----------------------------------------------------|
D |----------------------------------------------------|
A |----------------------------------------------------|
E |--3h-2-----2-----2--3h-2-----2-----2--3h-2--2-------|

                                                     
----------------------------------------------------|
----------------------------------------------------|
----------------------------------------------------|
----------------------------------------------------|
----------------------------------------------------|
--3h-2-----2-----2--3h-2-----2-----2--3h-2--2-------|

                                                     
----------------------------------------------------|
----------------------------------------------------|
----------------------------------------------------|
----------------------------------------------------|
----------------------------------------------------|
--3h-2-----2-----2--3h-2-----2-----2--3h-2--2-------|

                                                     
----------------------------------------------------|
----------------------------------------------------|
----------------------------------------------------|
----------------------------------------------------|
----------------------------------------------------|
--3h-2-----2-----2--3h-2-----2-----2--3h-2--2-------|

                                                     
----------------------------------------------------|
----------------------------------------------------|
----------------------------------------------------|
----------------------------------------------------|
----------------------------------------------------|
--3h-0-----0-----0--3h-2-----2-----2--3h-2--2-------|

                                                     
----------------------------------------------------|
----------------------------------------------------|
----------------------------------------------------|
----------------------------------------------------|
----------------------------------------------------|
--3h-0-----0-----0--3h-2-----2-----2--3h-2--2-------|

                                                     
----------------------------------------------------|
----------------------------------------------------|
----------------------------------------------------|
----------------------------------------------------|
----------------------------------------------------|
--3h-0-----0-----0--3h-2-----2-----2--3h-2--2-------|

                                                                              
----------------------------------------------------|----|----|----|----|----|
----------------------------------------------------|----|----|----|----|----|
----------------------------------------------------|----|----|----|----|----|
----------------------------------------------------|----|----|----|----|----|
----------------------------------------------------|----|----|----|----|----|
--3h-0-----0-----0--3h-2-----2-----2--3h-2--2-------|----|----|----|----|----|

                                   
----|----|----|----|----|----|----|
----|----|----|----|----|----|----|
----|----|----|----|----|----|----|
----|----|----|----|----|----|----|
----|----|----|----|----|----|----|
----|----|----|----|----|----|----|

                                                     
----------------------------------------------------|
----------------------------------------------------|
----------------------------------------------------|
--------------------------------------------5-------|
--------------------------------------------5-------|
--0M-2M-------------0M-2M----2M-0M----2M------------|

                                                     
----------------------------------------------------|
----------------------------------------------------|
----------------------------------------------------|
--------------------------------------------5-------|
--------------------------------------------5-------|
--0M-2M-------------0M-2M----2M-0M----2M------------|

                                                     
----------------------------------------------------|
----------------------------------------------------|
----------------------------------------------------|
--------------------------------------------5-------|
--------------------------------------------5-------|
--0M-2M-------------0M-2M----2M-0M----2M------------|

                                                     
----------------------------------------------------|
----------------------------------------------------|
----------------------------------------------------|
----------------------------------------------------|
----------------------------------------------------|
--0M-2M----------------0M-2M-2M-0M----0M------------|

                                                     
----------------------------------------------------|
----------------------------------------------------|
----------------------------------------------------|
--------------------------------------------5-------|
--------------------------------------------5-------|
--0M-2M-------------0M-2M----2M-0M----2M------------|

                                                     
----------------------------------------------------|
----------------------------------------------------|
----------------------------------------------------|
--------------------------------------------5-------|
--------------------------------------------5-------|
--0M-2M-------------0M-2M----2M-0M----2M------------|

                                                     
----------------------------------------------------|
----------------------------------------------------|
----------------------------------------------------|
--------------------------------------------5-------|
--------------------------------------------5-------|
--0M-2M-------------0M-2M----2M-0M----2M------------|

                                                                              
----------------------------------------------------|----|----|----|----|----|
----------------------------------------------------|----|----|----|----|----|
----------------------------------------------------|----|----|----|----|----|
----------------------------------------------------|----|----|----|----|----|
----------------------------------------------------|----|----|----|----|----|
--0M-2M-------------0M-2M-2M-0----------------------|----|----|----|----|----|

                                                                    
----|----|----|----------------------------------------------------|
----|----|----|----------------------------------------------------|
----|----|----|----------------------------------------------------|
----|----|----|--------------------------------------------5-------|
----|----|----|--------------------------------------------5-------|
----|----|----|--0M-2M-------------0M-2M----2M-0M----2M------------|

                                                     
----------------------------------------------------|
----------------------------------------------------|
----------------------------------------------------|
--------------------------------------------5-------|
--------------------------------------------5-------|
--0M-2M-------------0M-2M----2M-0M----2M------------|

                                                     
----------------------------------------------------|
----------------------------------------------------|
----------------------------------------------------|
--------------------------------------------5-------|
--------------------------------------------5-------|
--0M-2M-------------0M-2M----2M-0M----2M------------|

                                                     
----------------------------------------------------|
----------------------------------------------------|
----------------------------------------------------|
----------------------------------------------------|
----------------------------------------------------|
--0M-2M----------------0M-2M-2M-0M----0M------------|

                                                     
----------------------------------------------------|
----------------------------------------------------|
----------------------------------------------------|
--------------------------------------------5-------|
--------------------------------------------5-------|
--0M-2M-------------0M-2M----2M-0M----2M------------|

                                                     
----------------------------------------------------|
----------------------------------------------------|
----------------------------------------------------|
--------------------------------------------5-------|
--------------------------------------------5-------|
--0M-2M-------------0M-2M----2M-0M----2M------------|

                                                     
----------------------------------------------------|
----------------------------------------------------|
----------------------------------------------------|
--------------------------------------------5-------|
--------------------------------------------5-------|
--0M-2M-------------0M-2M----2M-0M----2M------------|

                                                     
----------------------------------------------------|
----------------------------------------------------|
----------------------------------------------------|
----------------------------------------------------|
----------------------------------------------------|
--0M-2M-------------0M-2M-2M-0----------------------|

                                                     
----------------------------------------------------|
----------------------------------------------------|
--------------------------------------------7-------|
--4--------2--------4--------2--------4-----7-------|
--4--------2--------4--------2--------4-----5-------|
--2--------0--------2--------0--------2-------------|

                                                     
----------------------------------------------------|
----------------------------------------------------|
----------------------------------------------------|
--4--------2--------4--------2--------5-------------|
--4--------2--------4--------2--------5-------------|
--2--------0--------2--------0--------3-------------|

                                                     
----------------------------------------------------|
----------------------------------------------------|
--------------------------------------------7-------|
--4--------2--------4--------2--------4-----7-------|
--4--------2--------4--------2--------4-----5-------|
--2--------0--------2--------0--------2-------------|

                                                     
----------------------------------------------------|
----------------------------------------------------|
----------------------------------------------------|
--4--------2--------4--------2--------5-------------|
--4--------2--------4--------2--------5-------------|
--2--------0--------2--------0--------3-------------|

                                                     
----------------------------------------------------|
----------------------------------------------------|
--------------------------------------------7-------|
--4--------2--------4--------2--------4-----7-------|
--4--------2--------4--------2--------4-----5-------|
--2--------0--------2--------0--------2-------------|

                                                     
----------------------------------------------------|
----------------------------------------------------|
----------------------------------------------------|
--4--------2--------4--------2--------5-------------|
--4--------2--------4--------2--------5-------------|
--2--------0--------2--------0--------3-------------|

                                                     
----------------------------------------------------|
----------------------------------------------------|
--------------------------------------------7-------|
--4--------2--------4--------2--------4-----7-------|
--4--------2--------4--------2--------4-----5-------|
--2--------0--------2--------0--------2-------------|

                                                     
----------------------------------------------------|
----------------------------------------------------|
----------------------------------------------------|
--4--------2--------4--------2--------5-------------|
--4--------2--------4--------2--------5-------------|
--2--------0--------2--------0--------3-------------|

                                                     
----------------------------------------------------|
----------------------------------------------------|
----------------------------------------------------|
----------------------------------------------------|
----------------------------------------------------|
--3h-0-----0-----0--3h-2-----2-----2--3h-2--2-------|

                                                     
----------------------------------------------------|
----------------------------------------------------|
----------------------------------------------------|
----------------------------------------------------|
----------------------------------------------------|
--3h-0-----0-----0--3h-2----------------------------|

                                                     
----------------------------------------------------|
----------------------------------------------------|
----------------------------------------------------|
----------------------------------------------------|
----------------------------------------------------|
--3h-0-----0-----0--3h-2-----2-----2--3h-2--2-------|

                                                                              
----------------------------------------------------|----|----|----|----|----|
----------------------------------------------------|----|----|----|----|----|
----------------------------------------------------|----|----|----|----|----|
-----------------------------7s---------------------|----|----|----|----|----|
--------------------5s------------------------------|----|----|----|----|----|
--0--------3s---------------------------------------|----|----|----|----|----|

                                                                    
----|----|----|----------------------------------------------------|
----|----|----|----------------------------------------------------|
----|----|----|----------------------------------------------------|
----|----|----|--------------------------------------------5-------|
----|----|----|--------------------------------------------5-------|
----|----|----|--0M-2M-------------0M-2M----2M-0M----2M------------|

                                                     
----------------------------------------------------|
----------------------------------------------------|
----------------------------------------------------|
--------------------------------------------5-------|
--------------------------------------------5-------|
--0M-2M-------------0M-2M----2M-0M----2M------------|

                                                     
----------------------------------------------------|
----------------------------------------------------|
----------------------------------------------------|
--------------------------------------------5-------|
--------------------------------------------5-------|
--0M-2M-------------0M-2M----2M-0M----2M------------|

                                                     
----------------------------------------------------|
----------------------------------------------------|
----------------------------------------------------|
----------------------------------------------------|
----------------------------------------------------|
--0M-2M----------------0M-2M-2M-0M----0M------------|

                                                     
----------------------------------------------------|
----------------------------------------------------|
----------------------------------------------------|
--------------------------------------------5-------|
--------------------------------------------5-------|
--0M-2M-------------0M-2M----2M-0M----2M------------|

                                                     
----------------------------------------------------|
----------------------------------------------------|
----------------------------------------------------|
--------------------------------------------5-------|
--------------------------------------------5-------|
--0M-2M-------------0M-2M----2M-0M----2M------------|

                                                     
----------------------------------------------------|
----------------------------------------------------|
----------------------------------------------------|
--------------------------------------------5-------|
--------------------------------------------5-------|
--0M-2M-------------0M-2M----2M-0M----2M------------|

                                                     
----------------------------------------------------|
----------------------------------------------------|
----------------------------------------------------|
----------------------------------------------------|
----------------------------------------------------|
--0M-2M-------------0M-2M-2M-0----------------------|

                                                     
----------------------------------------------------|
----------------------------------------------------|
--------------------------------------------7-------|
--4--------2--------4--------2--------4-----7-------|
--4--------2--------4--------2--------4-----5-------|
--2--------0--------2--------0--------2-------------|

                                                     
----------------------------------------------------|
----------------------------------------------------|
----------------------------------------------------|
--4--------2--------4--------2--------5-------------|
--4--------2--------4--------2--------5-------------|
--2--------0--------2--------0--------3-------------|

                                                     
----------------------------------------------------|
----------------------------------------------------|
--------------------------------------------7-------|
--4--------2--------4--------2--------4-----7-------|
--4--------2--------4--------2--------4-----5-------|
--2--------0--------2--------0--------2-------------|

                                                     
----------------------------------------------------|
----------------------------------------------------|
----------------------------------------------------|
--4--------2--------4--------2--------5-------------|
--4--------2--------4--------2--------5-------------|
--2--------0--------2--------0--------3-------------|

                                                     
----------------------------------------------------|
----------------------------------------------------|
--------------------------------------------7-------|
--4--------2--------4--------2--------4-----7-------|
--4--------2--------4--------2--------4-----5-------|
--2--------0--------2--------0--------2-------------|

                                                     
----------------------------------------------------|
----------------------------------------------------|
----------------------------------------------------|
--4--------2--------4--------2--------5-------------|
--4--------2--------4--------2--------5-------------|
--2--------0--------2--------0--------3-------------|

                                                     
----------------------------------------------------|
----------------------------------------------------|
--------------------------------------------7-------|
--4--------2--------4--------2--------4-----7-------|
--4--------2--------4--------2--------4-----5-------|
--2--------0--------2--------0--------2-------------|

                                                               >     
----------------------------------------------------|-------|-------|
----------------------------------------------------|-------|-------|
----------------------------------------------------|-------|-------|
--4--------2--------4--------2--------5L------------|--5L---|--5----|
--4--------2--------4--------2--------5L------------|--5L---|--5----|
--2--------0--------2--------0--------3L------------|--3L---|--3----|

                                                     
----------------------------------------------------|
----------------------------------------------------|
----------------------------------------------------|
----------------------------------------------------|
--------------------------------------------5L-5----|
--0--2--2>-0--2--2>-0--2-----2--2>-0--2--3----------|

                                                     
----------------------------------------------------|
----------------------------------------------------|
----------------------------------------------------|
----------------------------------------------------|
--------------------------------------------5L-5----|
--0--2--2>-0--2--2>-0--2-----2--2>-0--2--3----------|

                                                     
----------------------------------------------------|
----------------------------------------------------|
----------------------------------------------------|
----------------------------------------------------|
--------------------------------------------5L-5----|
--0--2--2>-0--2--2>-0--2-----2--2>-0--2--3----------|

                                                     
----------------------------------------------------|
----------------------------------------------------|
----------------------------------------------------|
----------------------------------------------------|
--------------------------------------------5L-5----|
--0--2--2>-0--2--2>-0--2-----2--2>-0--2--3----------|

                                                     
----------------------------------------------------|
----------------------------------------------------|
----------------------------------------------------|
----------------------------------------------------|
--------------------------------------------5L-5----|
--0--2--2>-0--2--2>-0--2-----2--2>-0--2--3----------|

                                                     
----------------------------------------------------|
----------------------------------------------------|
----------------------------------------------------|
----------------------------------------------------|
--------------------------------------------5L-5----|
--0--2--2>-0--2--2>-0--2-----2--2>-0--2--3----------|

                                                     
----------------------------------------------------|
----------------------------------------------------|
----------------------------------------------------|
----------------------------------------------------|
--------------------------------------------5L-5----|
--0--2--2>-0--2--2>-0--2-----2--2>-0--2--3----------|

                                                     
----------------------------------------------------|
----------------------------------------------------|
----------------------------------------------------|
----------------------------------------------------|
--------------------------------------------5L-5----|
--0--2--2>-0--2--2>-0--2-----2--2>-0--2--3----------|

                                                     
----------------------------------------------------|
----------------------------------------------------|
--------------------------------------------7-------|
--4--------2--------4--------2--------4-----7-------|
--4--------2--------4--------2--------4-----5-------|
--2--------0--------2--------0--------2-------------|

                                                     
----------------------------------------------------|
----------------------------------------------------|
----------------------------------------------------|
--4--------2--------4-----------------5-------------|
--4--------2--------4-----------------5-------------|
--2--------0--------2-----------------3-------------|

                                                     
----------------------------------------------------|
----------------------------------------------------|
--------------------------------------------7-------|
--4--------2--------4--------2--------4-----7-------|
--4--------2--------4--------2--------4-----5-------|
--2--------0--------2--------0--------2-------------|

                                                     
----------------------------------------------------|
----------------------------------------------------|
----------------------------------------------------|
--4--------2--------4-----------------5-------------|
--4--------2--------4-----------------5-------------|
--2--------0--------2-----------------3-------------|

                                                     
----------------------------------------------------|
----------------------------------------------------|
--------------------------------------------7-------|
--4--------2--------4--------2--------4-----7-------|
--4--------2--------4--------2--------4-----5-------|
--2--------0--------2--------0--------2-------------|

                                                     
----------------------------------------------------|
----------------------------------------------------|
----------------------------------------------------|
--4--------2--------4--------2--------5-------------|
--4--------2--------4--------2--------5-------------|
--2--------0--------2--------0--------3-------------|

                                                     
----------------------------------------------------|
----------------------------------------------------|
--------------------------------------------7-------|
--4--------2--------4--------2--------4-----7-------|
--4--------2--------4--------2--------4-----5-------|
--2--------0--------2--------0--------2-------------|

                                                     
----------------------------------------------------|
----------------------------------------------------|
----------------------------------------------------|
--4--------2--------4--------2----------------------|
--4--------2--------4--------2----------------------|
--2--------0--------2--------0----------------------|

                                                     
----------------------------------------------------|
----------------------------------------------------|
----------------------------------------------------|
--5--------5L-------5L-------5--------5--------5L---|
--5--------5L-------5L-------5--------5--------5L---|
--3--------3L-------3L-------3--------3--------3L---|

                                                     
----------------------------------------------------|
----------------------------------------------------|
----------------------------------------------------|
--5-----------------------5--------5L----------5L---|
--5-----------------------5--------5L----------5L---|
--3-----------------------3--------3L----------3L---|

                                                     
----------------------------------------------------|
----------------------------------------------------|
----------------------------------------------------|
--5-----------5--------5L----------5L----------5----|
--5-----------5--------5L----------5L----------5----|
--3-----------3--------3L----------3L----------3----|

                                               >
----------------------------------------------------|----||
----------------------------------------------------|----||
----------------------------------------------------|----||
--5--------5L----------5L----------------------5----|----||
--5--------5L----------5L----------------------5----|----||
--3--------3L----------3L----------------------3----|----||

Chitara 2
=================================

E |----|----------------------------------------------------|
B |----|----------------------------------------------------|
G |----|----------------------------------------------------|
D |----|----------------------------------------------------|
A |----|----------------------------------------------------|
E |----|--3h-2-----2-----2--3h-2-----2-----2--3h-2--2-------|

                                                     
----------------------------------------------------|
----------------------------------------------------|
----------------------------------------------------|
----------------------------------------------------|
----------------------------------------------------|
--3h-2-----2-----2--3h-2-----2-----2--3h-2--2-------|

                                                     
----------------------------------------------------|
----------------------------------------------------|
----------------------------------------------------|
----------------------------------------------------|
----------------------------------------------------|
--3h-2-----2-----2--3h-2-----2-----2--3h-2--2-------|

                                                     
----------------------------------------------------|
----------------------------------------------------|
----------------------------------------------------|
----------------------------------------------------|
----------------------------------------------------|
--3h-0-----0-----0--3h-2-----2-----2--3h-2--2-------|

                                                     
----------------------------------------------------|
----------------------------------------------------|
----------------------------------------------------|
----------------------------------------------------|
----------------------------------------------------|
--3h-0-----0-----0--3h-2-----2-----2--3h-2--2-------|

                                                     
----------------------------------------------------|
----------------------------------------------------|
----------------------------------------------------|
----------------------------------------------------|
----------------------------------------------------|
--3h-0-----0-----0--3h-2-----2-----2--3h-2--2-------|

                                                                         
----------------------------------------------------|----|----|----|----|
----------------------------------------------------|----|----|----|----|
----------------------------------------------------|----|----|----|----|
----------------------------------------------------|----|----|----|----|
----------------------------------------------------|----|----|----|----|
--3h-0-----0-----0--3h-2-----2-----2--3h-2--2-------|----|----|----|----|

                                                     
----------------------------------------------------|
--------------------10L---10L---10------------------|
-----------11L---11---------------------------------|
----------------------------------------------------|
----------------------------------------------------|
----------------------------------------------------|

                                                     
--------------------12L---12------------------------|
--------------------------------12L12---------------|
--------------------------------------------11L-----|
----------------------------------------------------|
----------------------------------------------------|
----------------------------------------------------|

                                                     
----------------------------------------------------|
--------------------10L---10L---10------------------|
--11-------11L---11---------------------------------|
----------------------------------------------------|
----------------------------------------------------|
----------------------------------------------------|

                                                     
--------------------12L---12------------------------|
--------------------------------12L12L---12---------|
--------------------------------------------11L-----|
----------------------------------------------------|
----------------------------------------------------|
----------------------------------------------------|

                                                     
----------------------------------------------------|
--------------------10L---10L---10------------------|
--11-------11L---11---------------------------------|
----------------------------------------------------|
----------------------------------------------------|
----------------------------------------------------|

                                                     
--------------------12L---12------------------------|
--------------------------------12L12L---12---------|
--------------------------------------------11L-----|
----------------------------------------------------|
----------------------------------------------------|
----------------------------------------------------|

                                                     
----------------------------------------------------|
--------------------10L---10L---10------------------|
--11-------11L---11---------------------------------|
----------------------------------------------------|
----------------------------------------------------|
----------------------------------------------------|

                                                     
--------------------12L---12------------------------|
--------------------------------12L12L---12---------|
--------------------------------------------11------|
----------------------------------------------------|
----------------------------------------------------|
----------------------------------------------------|

                                                     
----------------------------------------------------|
----------------------------------------------------|
----------------------------------------------------|
--------------------------------------------5-------|
--------------------------------------------5-------|
--0M-2M-------------0M-2M----2M-0M----2M------------|

                                                     
----------------------------------------------------|
----------------------------------------------------|
----------------------------------------------------|
--------------------------------------------5-------|
--------------------------------------------5-------|
--0M-2M-------------0M-2M----2M-0M----2M------------|

                                                     
----------------------------------------------------|
----------------------------------------------------|
----------------------------------------------------|
--------------------------------------------5-------|
--------------------------------------------5-------|
--0M-2M-------------0M-2M----2M-0M----2M------------|

                                                     
----------------------------------------------------|
----------------------------------------------------|
----------------------------------------------------|
----------------------------------------------------|
----------------------------------------------------|
--0M-2M----------------0M-2M-2M-0M----0M------------|

                                                     
----------------------------------------------------|
----------------------------------------------------|
----------------------------------------------------|
--------------------------------------------5-------|
--------------------------------------------5-------|
--0M-2M-------------0M-2M----2M-0M----2M------------|

                                                     
----------------------------------------------------|
----------------------------------------------------|
----------------------------------------------------|
--------------------------------------------5-------|
--------------------------------------------5-------|
--0M-2M-------------0M-2M----2M-0M----2M------------|

                                                     
----------------------------------------------------|
----------------------------------------------------|
----------------------------------------------------|
--------------------------------------------5-------|
--------------------------------------------5-------|
--0M-2M-------------0M-2M----2M-0M----2M------------|

                                                     
----------------------------------------------------|
----------------------------------------------------|
----------------------------------------------------|
----------------------------------------------------|
----------------------------------------------------|
--0M-2M-------------0M-2M-2M-0----------------------|

                                                     
----------------------------------------------------|
--------------------10L---10L---10------------------|
-----------11L---11---------------------------------|
----------------------------------------------------|
----------------------------------------------------|
----------------------------------------------------|

                                                     
--------------------12L---12------------------------|
--------------------------------12L12---------------|
--------------------------------------------11L-----|
----------------------------------------------------|
----------------------------------------------------|
----------------------------------------------------|

                                                     
----------------------------------------------------|
--------------------10L---10L---10------------------|
--11-------11L---11---------------------------------|
----------------------------------------------------|
----------------------------------------------------|
----------------------------------------------------|

                                                     
--------------------12L---12------------------------|
--------------------------------12L12L---12---------|
--------------------------------------------11L-----|
----------------------------------------------------|
----------------------------------------------------|
----------------------------------------------------|

                                                     
----------------------------------------------------|
--------------------10L---10L---10------------------|
--11-------11L---11---------------------------------|
----------------------------------------------------|
----------------------------------------------------|
----------------------------------------------------|

                                                     
--------------------12L---12------------------------|
--------------------------------12L12L---12---------|
--------------------------------------------11L-----|
----------------------------------------------------|
----------------------------------------------------|
----------------------------------------------------|

                                                     
----------------------------------------------------|
--------------------10L---10L---10------------------|
--11-------11L---11---------------------------------|
----------------------------------------------------|
----------------------------------------------------|
----------------------------------------------------|

                                                     
--------------------12L---12------------------------|
--------------------------------12L12L---12---------|
--------------------------------------------11------|
----------------------------------------------------|
----------------------------------------------------|
----------------------------------------------------|

                                                     
----------------------------------------------------|
----------------------------------------------------|
----------------------------------------------------|
--------------------------------------------5-------|
--------------------------------------------5-------|
--0M-2M-------------0M-2M----2M-0M----2M------------|

                                                     
----------------------------------------------------|
----------------------------------------------------|
----------------------------------------------------|
--------------------------------------------5-------|
--------------------------------------------5-------|
--0M-2M-------------0M-2M----2M-0M----2M------------|

                                                     
----------------------------------------------------|
----------------------------------------------------|
----------------------------------------------------|
--------------------------------------------5-------|
--------------------------------------------5-------|
--0M-2M-------------0M-2M----2M-0M----2M------------|

                                                     
----------------------------------------------------|
----------------------------------------------------|
----------------------------------------------------|
----------------------------------------------------|
----------------------------------------------------|
--0M-2M----------------0M-2M-2M-0M----0M------------|

                                                     
----------------------------------------------------|
----------------------------------------------------|
----------------------------------------------------|
--------------------------------------------5-------|
--------------------------------------------5-------|
--0M-2M-------------0M-2M----2M-0M----2M------------|

                                                     
----------------------------------------------------|
----------------------------------------------------|
----------------------------------------------------|
--------------------------------------------5-------|
--------------------------------------------5-------|
--0M-2M-------------0M-2M----2M-0M----2M------------|

                                                     
----------------------------------------------------|
----------------------------------------------------|
----------------------------------------------------|
--------------------------------------------5-------|
--------------------------------------------5-------|
--0M-2M-------------0M-2M----2M-0M----2M------------|

                                                     
----------------------------------------------------|
----------------------------------------------------|
----------------------------------------------------|
----------------------------------------------------|
----------------------------------------------------|
--0M-2M-------------0M-2M-2M-0----------------------|

                                                     
----------------------------------------------------|
----------------------------------------------------|
--------------------------------------------7-------|
--4--------2--------4--------2--------4-----7-------|
--4--------2--------4--------2--------4-----5-------|
--2--------0--------2--------0--------2-------------|

                                                     
----------------------------------------------------|
----------------------------------------------------|
----------------------------------------------------|
--4--------2--------4--------2--------5-------------|
--4--------2--------4--------2--------5-------------|
--2--------0--------2--------0--------3-------------|

                                                     
----------------------------------------------------|
----------------------------------------------------|
--------------------------------------------7-------|
--4--------2--------4--------2--------4-----7-------|
--4--------2--------4--------2--------4-----5-------|
--2--------0--------2--------0--------2-------------|

                                                     
----------------------------------------------------|
----------------------------------------------------|
----------------------------------------------------|
--4--------2--------4--------2--------5-------------|
--4--------2--------4--------2--------5-------------|
--2--------0--------2--------0--------3-------------|

                                                     
----------------------------------------------------|
----------------------------------------------------|
--------------------------------------------7-------|
--5--------2--------4--------2--------5-----7-------|
--4--------2--------4--------2--------4-----5-------|
--2--------0--------2--------0--------2-------------|

                                                     
----------------------------------------------------|
----------------------------------------------------|
----------------------------------------------------|
--4--------2--------4--------2--------5-------------|
--4--------2--------4--------2--------5-------------|
--2--------0--------2--------0--------3-------------|

                                                     
----------------------------------------------------|
----------------------------------------------------|
--------------------------------------------7-------|
--4--------2--------4--------2--------4-----7-------|
--4--------2--------4--------2--------4-----5-------|
--2--------0--------2--------0--------2-------------|

                                                     
----------------------------------------------------|
----------------------------------------------------|
----------------------------------------------------|
--4--------2--------4--------2--------5-------------|
--4--------2--------4--------2--------5-------------|
--2--------0--------2--------0--------3-------------|

                                                     
----------------------------------------------------|
----------------------------------------------------|
----------------------------------------------------|
----------------------------------------------------|
----------------------------------------------------|
--3h-0-----0-----0--3h-2-----2-----2--3h-2--2-------|

                                                     
----------------------------------------------------|
----------------------------------------------------|
----------------------------------------------------|
----------------------------------------------------|
----------------------------------------------------|
--3h-0-----0-----0--3h-2----------------------------|

                                                     
----------------------------------------------------|
----------------------------------------------------|
----------------------------------------------------|
----------------------------------------------------|
----------------------------------------------------|
--3h-0-----0-----0--3h-2-----2-----2--3h-2--2-------|

                                                     
----------------------------------------------------|
----------------------------------------------------|
----------------------------------------------------|
-----------------------------7s---------------------|
--------------------5s------------------------------|
--0--------3s---------------------------------------|

                                                     
----------------------------------------------------|
--------------------10L---10L---10------------------|
-----------11L---11---------------------------------|
----------------------------------------------------|
----------------------------------------------------|
----------------------------------------------------|

                                                     
--------------------12L---12------------------------|
--------------------------------12L12---------------|
--------------------------------------------11L-----|
----------------------------------------------------|
----------------------------------------------------|
----------------------------------------------------|

                                                     
----------------------------------------------------|
--------------------10L---10L---10------------------|
--11-------11L---11---------------------------------|
----------------------------------------------------|
----------------------------------------------------|
----------------------------------------------------|

                                                     
--------------------12L---12------------------------|
--------------------------------12L12L---12---------|
--------------------------------------------11L-----|
----------------------------------------------------|
----------------------------------------------------|
----------------------------------------------------|

                                                     
----------------------------------------------------|
--------------------10L---10L---10------------------|
--11-------11L---11---------------------------------|
----------------------------------------------------|
----------------------------------------------------|
----------------------------------------------------|

                                                     
--------------------12L---12------------------------|
--------------------------------12L12L---12---------|
--------------------------------------------11L-----|
----------------------------------------------------|
----------------------------------------------------|
----------------------------------------------------|

                                                     
----------------------------------------------------|
--------------------10L---10L---10------------------|
--11-------11L---11---------------------------------|
----------------------------------------------------|
----------------------------------------------------|
----------------------------------------------------|

                                                     
--------------------12L---12------------------------|
--------------------------------12L12L---12---------|
--------------------------------------------11------|
----------------------------------------------------|
----------------------------------------------------|
----------------------------------------------------|

                                                     
----------------------------------------------------|
----------------------------------------------------|
----------------------------------------------------|
--------------------------------------------5-------|
--------------------------------------------5-------|
--0M-2M-------------0M-2M----2M-0M----2M------------|

                                                     
----------------------------------------------------|
----------------------------------------------------|
----------------------------------------------------|
--------------------------------------------5-------|
--------------------------------------------5-------|
--0M-2M-------------0M-2M----2M-0M----2M------------|

                                                     
----------------------------------------------------|
----------------------------------------------------|
----------------------------------------------------|
--------------------------------------------5-------|
--------------------------------------------5-------|
--0M-2M-------------0M-2M----2M-0M----2M------------|

                                                     
----------------------------------------------------|
----------------------------------------------------|
----------------------------------------------------|
----------------------------------------------------|
----------------------------------------------------|
--0M-2M----------------0M-2M-2M-0M----0M------------|

                                                     
----------------------------------------------------|
----------------------------------------------------|
----------------------------------------------------|
--------------------------------------------5-------|
--------------------------------------------5-------|
--0M-2M-------------0M-2M----2M-0M----2M------------|

                                                     
----------------------------------------------------|
----------------------------------------------------|
----------------------------------------------------|
--------------------------------------------5-------|
--------------------------------------------5-------|
--0M-2M-------------0M-2M----2M-0M----2M------------|

                                                     
----------------------------------------------------|
----------------------------------------------------|
----------------------------------------------------|
--------------------------------------------5-------|
--------------------------------------------5-------|
--0M-2M-------------0M-2M----2M-0M----2M------------|

                                                     
----------------------------------------------------|
----------------------------------------------------|
----------------------------------------------------|
----------------------------------------------------|
----------------------------------------------------|
--0M-2M-------------0M-2M-2M-0----------------------|

                                                     
----------------------------------------------------|
----------------------------------------------------|
--------------------------------------------7-------|
--4--------2--------4--------2--------4-----7-------|
--4--------2--------4--------2--------4-----5-------|
--2--------0--------2--------0--------2-------------|

                                                     
----------------------------------------------------|
----------------------------------------------------|
----------------------------------------------------|
--4--------2--------4--------2--------5-------------|
--4--------2--------4--------2--------5-------------|
--2--------0--------2--------0--------3-------------|

                                                     
----------------------------------------------------|
----------------------------------------------------|
--------------------------------------------7-------|
--4--------2--------4--------2--------4-----7-------|
--4--------2--------4--------2--------4-----5-------|
--2--------0--------2--------0--------2-------------|

                                                     
----------------------------------------------------|
----------------------------------------------------|
----------------------------------------------------|
--4--------2--------4--------2--------5-------------|
--4--------2--------4--------2--------5-------------|
--2--------0--------2--------0--------3-------------|

                                                     
----------------------------------------------------|
----------------------------------------------------|
--------------------------------------------7-------|
--5--------2--------4--------2--------5-----7-------|
--4--------2--------4--------2--------4-----5-------|
--2--------0--------2--------0--------2-------------|

                                                     
----------------------------------------------------|
----------------------------------------------------|
----------------------------------------------------|
--4--------2--------4--------2--------5-------------|
--4--------2--------4--------2--------5-------------|
--2--------0--------2--------0--------3-------------|

                                                     
----------------------------------------------------|
----------------------------------------------------|
--------------------------------------------7-------|
--4--------2--------4--------2--------4-----7-------|
--4--------2--------4--------2--------4-----5-------|
--2--------0--------2--------0--------2-------------|

                                                               >     
----------------------------------------------------|-------|-------|
----------------------------------------------------|-------|-------|
----------------------------------------------------|-------|-------|
--4--------2--------4--------2--------5L------------|--5L---|--5----|
--4--------2--------4--------2--------5L------------|--5L---|--5----|
--2--------0--------2--------0--------3L------------|--3L---|--3----|

                                                     
----------------------------------------------------|
----------------------------------------------------|
----------------------------------------------------|
----------------------------------------------------|
--------------------------------------------5L-5----|
--0--2--2>-0--2--2>-0--2-----2--2>-0--2--3----------|

                                                     
----------------------------------------------------|
----------------------------------------------------|
----------------------------------------------------|
----------------------------------------------------|
--------------------------------------------5L-5----|
--0--2--2>-0--2--2>-0--2-----2--2>-0--2--3----------|

                                                     
----------------------------------------------------|
----------------------------------------------------|
----------------------------------------------------|
----------------------------------------------------|
--------------------------------------------5L-5----|
--0--2--2>-0--2--2>-0--2-----2--2>-0--2--3----------|

                                                     
----------------------------------------------------|
----------------------------------------------------|
----------------------------------------------------|
----------------------------------------------------|
--------------------------------------------5L-5----|
--0--2--2>-0--2--2>-0--2-----2--2>-0--2--3----------|

                                                     
----------------------------------------------------|
----------------------------------------------------|
----------------------------------------------------|
----------------------------------------------------|
--------------------------------------------5L-5----|
--0--2--2>-0--2--2>-0--2-----2--2>-0--2--3----------|

                                                     
----------------------------------------------------|
----------------------------------------------------|
----------------------------------------------------|
----------------------------------------------------|
--------------------------------------------5L-5----|
--0--2--2>-0--2--2>-0--2-----2--2>-0--2--3----------|

                                                     
----------------------------------------------------|
----------------------------------------------------|
----------------------------------------------------|
----------------------------------------------------|
--------------------------------------------5L-5----|
--0--2--2>-0--2--2>-0--2-----2--2>-0--2--3----------|

                                                     
----------------------------------------------------|
----------------------------------------------------|
----------------------------------------------------|
----------------------------------------------------|
--------------------------------------------5L-5----|
--0--2--2>-0--2--2>-0--2-----2--2>-0--2--3----------|

                                                     
----------------------------------------------------|
----------------------------------------------------|
--------------------------------------------7-------|
--4--------2--------4--------2--------4-----7-------|
--4--------2--------4--------2--------4-----5-------|
--2--------0--------2--------0--------2-------------|

                                                     
----------------------------------------------------|
----------------------------------------------------|
----------------------------------------------------|
--4--------2--------4-----------------5-------------|
--4--------2--------4-----------------5-------------|
--2--------0--------2-----------------3-------------|

                                                     
----------------------------------------------------|
----------------------------------------------------|
--------------------------------------------7-------|
--4--------2--------4--------2--------4-----7-------|
--4--------2--------4--------2--------4-----5-------|
--2--------0--------2--------0--------2-------------|

                                                     
----------------------------------------------------|
----------------------------------------------------|
----------------------------------------------------|
--4--------2--------4-----------------5-------------|
--4--------2--------4-----------------5-------------|
--2--------0--------2-----------------3-------------|

                                                     
----------------------------------------------------|
----------------------------------------------------|
--------------------------------------------7-------|
--4--------2--------4--------2--------4-----7-------|
--4--------2--------4--------2--------4-----5-------|
--2--------0--------2--------0--------2-------------|

                                                     
----------------------------------------------------|
----------------------------------------------------|
----------------------------------------------------|
--4--------2--------4--------2--------5-------------|
--4--------2--------4--------2--------5-------------|
--2--------0--------2--------0--------3-------------|

                                                     
----------------------------------------------------|
----------------------------------------------------|
--------------------------------------------7-------|
--4--------2--------4--------2--------4-----7-------|
--4--------2--------4--------2--------4-----5-------|
--2--------0--------2--------0--------2-------------|

                                                     
----------------------------------------------------|
----------------------------------------------------|
----------------------------------------------------|
--4--------2--------4--------2----------------------|
--4--------2--------4--------2----------------------|
--2--------0--------2--------0----------------------|

                                                     
----------------------------------------------------|
----------------------------------------------------|
----------------------------------------------------|
--5--------5L-------5L-------5--------5--------5L---|
--5--------5L-------5L-------5--------5--------5L---|
--3--------3L-------3L-------3--------3--------3L---|

                                                     
----------------------------------------------------|
----------------------------------------------------|
----------------------------------------------------|
--5-----------------------5--------5L----------5L---|
--5-----------------------5--------5L----------5L---|
--3-----------------------3--------3L----------3L---|

                                                     
----------------------------------------------------|
----------------------------------------------------|
-------------------------------