Vița de Vie - Incep sa pierd

  • (1 voturi)
  • Contribuție:  sikth
oki...uita-ti si tabul sa nu zice-ti ca sunt rau si naspa:-@...

drop D : eBGDaD

intro+vers:

e----------|-------------|--------------------------|--------------------------------|
B-------12-|----------10-|--------------------------|-------------------------
G----11----|----11-------|----11----11----12--11----|----11----11----11-------9----9-|
D-12-------|-11----11----|-12----12----12--------12-|-11----11----11----11h12---12---|
A----------|-------------|--------------------------|--------------------------------|
D----------|-------------|--------------------------|--------------------------------|

chorus:
"ce aveam in fata mea...."
e---|---|---|---|---|---|
B---|---|---|---|---|---|
G---|---|-4-|-4-|---|---|
D-5-|-5-|-4-|-4-|-5-|-5-|
A-5-|-5-|-2-|-2-|-5-|-5-|
D-5-|-5-|---|---|-5-|-5-|

refren:
"incep sa piieerrddd..."
e---|---|---|-----|
B---|---|---|-----|
G---|---|---|-----|
D-4-|-7-|-5-|-0-2-|
A-4-|-7-|-5-|-0-2-|
D-4-|-7-|-5-|-0-2-|

nota! eu va arat acordurile...incercati sa luati si fisierul in gp5.2...have fun:)...
b9e823210feece71cae6bc0db599ba06
6Ld5REUUAAAAAA1PBEDya2BDGnf5rYKeKnmYm4Cz