Vița de Vie - La gatul meu

Album:         Doi

*** pe strofe melodia merge in variatii pe 2 acorduri. daca vreti, se poate spune ca 
seamana mult cu in lumina de la ocs
*** nu sunt sigur de acordurile de la partea cu mana mea... pentru ca despot are de 
obicei chitara acordata altfel si nu inteleg exact cum face

[_strofa_1_]
E                      Am
Daca as fi fost eu, tu
Am      E                         Am
N-ar fi fost prea greu sa fiu si eu
E                      Am
Daca atunci erai a mea,
Am       E                        Am
N-ar fi fost prea greu sa fiu al tau
E|--1---0----1---1-1---1----0------x------
B|--1---0----3---3-1---1----0------1------
G|--2---2----2---2-2---2----2------2------
D|--3---3----3---3-3---3----3------2------
A|--0---0----0---------3----3------0------
E|--x---x----x---------x----x------x------
   Mâ___na__ ta,      lân___gă__ a mea___

[_strofa_2_]

Daca ai fi fost tu, eu
N-ar fi fost prea greu sa fii si tu
Daca atunci eram al tau
N-ar fi fost prea greu sa fi a mea 
        Mana ta, langa a mea

[_solo_]

*** nici nu stiu de ce l-am mai scos...adica daca o sa-i foloseasca
 cuiva...ma rog...pe chitara rece se aude nasol 

G|--4~---4/5\4--\2--0--2--2/4~--4/5\4----------------------------------------------------------
D|--------------------------------------9/10\9--7--5--7-6~---9/10\9--7--5--7--7/9~---9b10r9~---

E
Mana ta se lasa, se lasa mangaiata
       Am                    E
Paraul tau - funie strans legata, la gatul meu
                    ...la gatul meu
  • chitaristul vdv
    26 ianuarie 2009 14:42
    sa sti ca acordurile sunt scoase foarte bine.bine lucrat.eu o cant dupa tabul tau.