Vița de Vie - Lasat pustiu

Ciupitura de intro:
e|-------------------------------------|
b|-----3-------3-------3---------3-----|
g|---0---0---0---0--0----0-----0---0---|
d|-2-------2-------2-----------------2-|
a|-------------------------0h3---------|
E|-------------------------------------|

e|--------------------------|
b|-----3-------3-----3------|
g|---0---0---0---0-0---0----|
d|-2-------2-------2--------|
a|-----------------3--------|
E|--------------------------|
Versuri
e|-------------------------------------|
b|-----3-------3-------3---------3-----|
g|---0---0---0---0--0----0-----0---0---|
d|-2-------2-------2-----------------2-|
a|-------------------------0h3---------|
E|-------------------------------------|

e|--------------------------|
b|-----3-------3-----3------|
g|---0---0---0---0-0---0----|
d|-2-------2-------2--------|
a|-----------------3--------|
E|--------------------------|

e|------------------------------------|
b|-----3-------3-------3--------3-----|
g|---0---0---0---0---0---0----0---0---|
d|-2-------0------------------------2-|
a|-----------------3-------0h3--------|
E|------------------------------------|

e|-----------------3---3-|
b|-----3---------3---3-3-|
g|---0---0-----0-------0-|
d|-2-------------------2-|
a|---------------------3-|
E|---------0h1-----------|

Strânge-mă-n brațe
Ține-mă cât mai strâns
Nu îmi da drumul, nu vreau să fiu
Lăsat pustiu!

Fără cuvinte 
Azi am să îți vorbesc 
Închide ochii, nu vreau să vezi
Cum sînt în rest!

Aici ar veni un slide cu nota C.
Bataia:jjsjsj xx
e|-0------0---|
b|-1h3----3h1-|
g|-0------0---|
d|-2h4----4h2-|
a|-3h5----5h3-|
E|------------|

        Em7  C9  G   D4
Refren: Trecător visător,
           Em7        C9         G   D4
        Mă lași să mă nasc și să mor
        Em7 C9  G   D4
        Relativ negativ,
          Em7      C9       G   D4
        Uitat fără niciun motiv

Zbor în lumină,
Zbor către asfințit
Ia-mă de mână, sînt un copil
Îmbătrânit!

Toată dorința,
Toată ființa mea
Urlă-n tăcere, cere și vrea
Prezența ta!

Refren:-//- 

Em7                  C9
Fiecare zi începe cu mâine
   G     D4
Am să mă schimb
Em7                    C9
Fiecare noapte râde și spune
   G     D4
Că nu am timp

Em7            C9 D4 
Norii coboară,
Em7             C9 D4
Vântul lovește iar,
Em7                         
Vine furtuna, în mintea mea,
Em7      G    C9 
Și-alerg spre ea!

x=bataie in chitara
h=slide
Daca versurile nu au acorduri inseamna ca se foloseste ciupitura de intro.

Refren: -//-

Transpunerile de pe acest site reprezintă viziunea personală a utilizatorilor asupra pieselor.
9176cc4eed18c8ffa30ddea122b343c7
f7e9d1d2-ebba-44ba-8198-e810bddf71a6