Vița de Vie - Lasat pustiu

  • Contribuție:  SirArthur33
  • Ultima actualizare: 14.06.2020
Acordaj: E standard EADGBE
Versiunea este cea de pe albumul Acustic (2013)
Atasez un tab cu extensia .gpx, strumming-ul suna brut, insa bataia este cea prezentata. 
Masura este de 3/4 la 140bpm.

E |----------------------|----------------------|----------------------|
B |-----------3----------|-----------3----------|-----------3----------|
G |--------0--------0----|--------0--------0----|--------0--------0----|
D |--2-------------------|--2-------------------|--2-------------------|
A |----------------------|----------------------|----------------------|
E |----------------------|----------------------|----------------------|


----------------------|----------------------|----------------------|
-----------3----------|-----------3----------|-----------3----------|
--------0-----0-------|--------0--------0----|--------0--------0----|
-----------------2----|--2-------------------|--2-------------------|
--0hm3----------------|----------------------|----------------------|
----------------------|----------------------|----------------------|


-------------||---------------------|----------------------|
-----3-------||----------3----------|-----------3----------|
--0-----0----||o------0--------0----|--------0--------0----|
--2----------||o2-------------------|--2-------------------|
--3----------||---------------------|----------------------|
-------------||---------------------|----------------------|


----------------------|----------------------|----------------------|
-----------3----------|-----------3----------|-----------3----------|
--------0--------0----|--------0-----0-------|--------0--------0----|
--2-------------------|-----------------2----|--2-------------------|
----------------------|--0hm3----------------|----------------------|
----------------------|----------------------|----------------------|


----------------------|-------------|----------------------|
-----------3----------|-----3-------|-----------3----------|
--------0--------0----|--0-----0----|--------0--------0----|
--2-------------------|--2----------|--2-------------------|
----------------------|--3----------|----------------------|
----------------------|-------------|----------------------|


----------------------|----------------------|----------------------|
-----------3----------|-----------3----------|-----------3----------|
--------2--------2----|--------0--------0----|--------0-----0-------|
--0-------------------|----------------------|-----------------2----|
----------------------|--0-------------------|--0hm3----------------|
----------------------|----------------------|----------------------|


----------------------|--------------3-------|--3----|------||
-----------3----------|-----------0-----0----|--3----|------||
--------0--------0----|--------0-------------|--0----|-----o||
--2-------------------|----------------------|--2----|-----o||
----------------------|----------------------|--3----|------||
----------------------|--0hm1----------------|-------|------||


----------------------|----------------------||-3-----3--3--3--3----|
--1s-3--3--3--3--3----|--3s-1--x-----x-------||-3-----3--3--3--3----|
--0s-0--0--0--0--0----|--0s-0--x-----x-------||o0-----0--0--0--0----|
--2s-4--4--4--4--4----|--4s-2--x-----x-------||o2-----2--2--2--2----|
--3s-5--5--5--5--5----|--5s-3--x-----x-------||-2-----2--2--2--2----|
----------------------|----------------------||---------------------|


--3-----3--3--3--3----|--3-----3--3--3--3----|--3-----3--3--3--3---||
--3-----3--3--3--3----|--3-----3--3--3--3----|--3-----3--3--3--3---||
--0-----0--0--0--0----|--0-----0--0--0--0----|--2-----2--2--2--2--o||
--0-----0--0--0--0----|--2-----2--2--2--2----|--0-----0--0--0--0--o||
--2-----2--2--2--2----|--3-----3--3--3--3----|---------------------||
--3-----3--3--3--3----|----------------------|---------------------||


----------------------|----------------------|----------------------|
-----------3----------|-----------3----------|-----------3----------|
--------0--------0----|--------0--------0----|--------0--------0----|
----------------------|----------------------|----------------------|
----------------------|----------------------|----------------------|
--0-------------------|--0-------------------|--0-------------------|


----------------------|----------------------|----------------------|
-----------3----------|-----------3----------|-----------3----------|
--------0-----0-------|--------0--------0----|--------0--------0----|
-----------------2----|----------------------|----------------------|
--0hm3----------------|----------------------|----------------------|
----------------------|--0-------------------|--0-------------------|


-------------|----------------------|----------------------|
-----3-------|-----------3----------|-----------3----------|
--0-----0----|--------0--------0----|--------0--------0----|
--2----------|----------------------|----------------------|
--3----------|----------------------|----------------------|
-------------|--0-------------------|--0-------------------|


----------------------|----------------------|----------------------|
-----------3----------|-----------3----------|-----------3----------|
--------0--------0----|--------0-----0-------|--------0--------0----|
----------------------|-----------------2----|----------------------|
----------------------|--0hm3----------------|----------------------|
--0-------------------|----------------------|--0-------------------|


----------------------|-------------|----------------------|
-----------3----------|-----3-------|-----------3----------|
--------0--------0----|--0-----0----|--------0--------0----|
----------------------|--2----------|----------------------|
----------------------|--3----------|----------------------|
--0-------------------|-------------|--0-------------------|


----------------------|----------------------|----------------------|
-----------3----------|-----------3----------|-----------3----------|
--------2--------2----|--------0--------0----|--------0-----0-------|
--0-------------------|----------------------|-----------------2----|
----------------------|--0-------------------|--0hm3----------------|
----------------------|----------------------|----------------------|


----------------------|--------------3-------|--3-----3--3--3--3----|
-----------3----------|-----------0-----0----|--3-----3--3--3--3----|
--------0--------0----|--------0-------------|--0-----0--0--0--0----|
----------------------|----------------------|--2-----2--2--2--2----|
----------------------|----------------------|--3-----3--3--3--3----|
--0-------------------|--0hm1----------------|----------------------|


--3-----3--3--3--3----|--3-----3--3--3--3----|--3-----3--3--3--3----|
--3-----3--3--3--3----|--3-----3--3--3--3----|--3-----3--3--3--3----|
--0-----0--0--0--0----|--0-----0--0--0--0----|--0-----0--0--0--0----|
--2-----2--2--2--2----|--2-----2--2--2--2----|--2-----2--2--2--2----|
--2-----2--2--2--2----|--2-----2--2--2--2----|--2-----2--2--2--2----|
----------------------|----------------------|----------------------|


--3-----3--3--3--3----|--3-----3--3--3--3----|--3-----3--3--3--3----|
--3-----3--3--3--3----|--3-----3--3--3--3----|--3-----3--3--3--3----|
--0-----0--0--0--0----|--0-----0--0--0--0----|--0-----0--0--0--0----|
--2-----2--2--2--2----|--2-----2--2--2--2----|--2-----2--2--2--2----|
--3-----3--3--3--3----|--2-----2--2--2--2----|--2-----2--2--2--2----|
----------------------|----------------------|----------------------|


--3-----3--3--3--3----|--3-----3--3--3--3----|--3-----3--3--3--3----|
--3-----3--3--3--3----|--3-----3--3--3--3----|--3-----3--3--3--3----|
--0-----0--0--0--0----|--0-----0--0--0--0----|--2-----2--2--2--2----|
--2-----2--2--2--2----|--2-----2--2--2--2----|--0-----0--0--0--0----|
--3-----3--3--3--3----|--2-----2--2--2--2----|----------------------|
----------------------|----------------------|----------------------|


--3-----3--3--3--3----|--3-----3--3--3--3----|--3-----3--3--3--3----|
--3-----3--3--3--3----|--3-----3--3--3--3----|--3-----3--3--3--3----|
--2-----2--2--2--2----|--0-----0--0--0--0----|--0-----0--0--0--0----|
--2-----2--2--2--2----|--2-----2--2--2--2----|--2-----2--2--2--2----|
----------------------|--3-----3--3--3--3----|--3-----3--3--3--3----|
----------------------|----------------------|----------------------|


--1-----1--1--1--1----|--3----|-------|----------------------|
--1-----1--1--1--1----|--3----|-------|--1s-3--3--3--3--3----|
--2-----2--2--2--2----|--0----|-------|--0s-0--0--0--0--0----|
--3-----3--3--3--3----|--2----|-------|--2s-4--4--4--4--4----|
--3-----3--3--3--3----|--3----|-------|--3s-5--5--5--5--5----|
--1-----1--1--1--1----|-------|-------|----------------------|


----------------------||-3-----3--3--3--3----|--3-----3--3--3--3----|
--3s-1--x-----x-------||-3-----3--3--3--3----|--3-----3--3--3--3----|
--0s-0--x-----x-------||o0-----0--0--0--0----|--0-----0--0--0--0----|
--4s-2--x-----x-------||o2-----2--2--2--2----|--0-----0--0--0--0----|
--5s-3--x-----x-------||-2-----2--2--2--2----|--2-----2--2--2--2----|
----------------------||---------------------|--3-----3--3--3--3----|


--3-----3--3--3--3----|--3-----3--3--3--3---|||-3-----3--3--3--3----|
--3-----3--3--3--3----|--3-----3--3--3--3---|||-3-----3--3--3--3----|
--0-----0--0--0--0----|--2-----2--2--2--2--o|||o0-----0--0--0--0----|
--2-----2--2--2--2----|--0-----0--0--0--0--o|||o2-----2--2--2--2----|
--3-----3--3--3--3----|---------------------|||-2-----2--2--2--2----|
----------------------|---------------------|||---------------------|


--3-----3--3--3--3----|--3-----3--3--3--3----|--3-----3--3--3--3---|||
--3-----3--3--3--3----|--3-----3--3--3--3----|--3-----3--3--3--3---|||
--0-----0--0--0--0----|--0-----0--0--0--0----|--2-----2--2--2--2--o|||
--0-----0--0--0--0----|--2-----2--2--2--2----|--0-----0--0--0--0--o|||
--2-----2--2--2--2----|--3-----3--3--3--3----|---------------------|||
--3-----3--3--3--3----|----------------------|---------------------|||


-3--------3-----3----|--3--------3-----3----|--3--------3-----3----|
-3--------3-----3----|--3--------3-----3----|--3--------3-----3----|
o0--------0-----0----|--0--------0-----0----|--0--------0-----0----|
o2-----2--2-----2----|--2-----2--2-----2----|--2-----2--2-----2----|
-2-----2--2-----2----|--2-----2--2-----2----|--2-----2--2-----2----|
-------0-------------|--------0-------------|--------0-------------|


--3--3--3---||-----------3-----3----|-----------3-----3----|
--3--3--3---||-----------3-----3----|-----------3-----3----|
--0--0--0--o||--0--------0-----0----|--0--------0-----0----|
--2--2--2--o||--2-----2--2-----2----|--2-----2--2-----2----|
--3--3--3---||--2-----2--2-----2----|--2-----2--2-----2----|
------------||--0-----0-------------|--0-----0-------------|


-----------3-----3----|--3--3--3----|-----------3----------|
-----------3-----3----|--3--3--3----|-----------3----------|
--0--------0-----0----|--0--0--0----|--0--------0----------|
--2-----2--2-----2----|--2--2--2----|--2--------2----------|
--2-----2--2-----2----|--3--3--3----|--2--------2----------|
--0-----0-------------|-------------|--0-------------------|


-----------3----------|--3--3--3----|-----------3-----3----|
-----------3----------|--3--3--3----|-----------3-----3----|
--0--------0----------|--0--0--0----|--0--------0-----0----|
--2--------2----------|--2--2--2----|--2-----2--2-----2----|
--2--------2----------|--3--3--3----|--2-----2--2-----2----|
--0-------------------|-------------|--0-----0-------------|


-----------3-----3----|-----------3-----3----|-----------3-----3----|
--3-----3--3-----3----|--3-----3--3-----3----|-----------3-----3----|
--2-----2--2-----2----|--2-----2--2-----2----|--0--------0-----0----|
--0-----0--0-----0----|--2-----2--2-----2----|--2-----2--2-----2----|
----------------------|----------------------|--3-----3--3-----3----|
----------------------|----------------------|----------------------|


-----------3----------|--1-----1--1--1--1----|--3----|-------|-------|
-----------3----------|--1-----1--1--1--1----|--3----|-------|-------|
--0--------0----------|--2-----2--2--2--2----|--0----|-------|-------|
--2--------2----------|--3-----3--3--3--3----|--2----|-------|-------|
--3--------3----------|--3-----3--3--3--3----|--3----|-------|-------|
----------------------|--1-----1--1--1--1----|-------|-------|-------|


----------------------|----------------------||-3-----3--3--3--3----|
--1s-3--3--3--3--3----|--3s-1--x-----x-------||-3-----3--3--3--3----|
--0s-0--0--0--0--0----|--0s-0--x-----x-------||o0-----0--0--0--0----|
--2s-4--4--4--4--4----|--4s-2--x-----x-------||o2-----2--2--2--2----|
--3s-5--5--5--5--5----|--5s-3--x-----x-------||-2-----2--2--2--2----|
----------------------|----------------------||---------------------|


--3-----3--3--3--3----|--3-----3--3--3--3----|--3-----3--3--3--3---||
--3-----3--3--3--3----|--3-----3--3--3--3----|--3-----3--3--3--3---||
--0-----0--0--0--0----|--0-----0--0--0--0----|--2-----2--2--2--2--o||
--0-----0--0--0--0----|--2-----2--2--2--2----|--0-----0--0--0--0--o||
--2-----2--2--2--2----|--3-----3--3--3--3----|---------------------||
--3-----3--3--3--3----|----------------------|---------------------||


----------------------|----------------------|--3----||
-----------3----------|-----------3----------|--3----||
--------0--------0----|--------0--------0----|--0----||
--2-------------------|--2-------------------|--2----||
----------------------|----------------------|--3----||
----------------------|----------------------|-------||

hm - hammer-on
e8df0930155955f8d933bf7974e8ec75
6Ld5REUUAAAAAA1PBEDya2BDGnf5rYKeKnmYm4Cz