Vița de Vie - Lasat Pustiu

Asta nu e versiunea de pe Acustic,imi pare rau sa va dezamagesc,este de pe Egon. Nu va recomand sa invatati melodia de pe guitar pro fiindca nu ma pricep deloc si nu este timing bun. Daca credeti ca trebuie ceva modificat atat la tabul din guitar pro cat si asta va rog sa comentati.

Acordaj:Drop D(DADGBE)

OK,intro-ul si partea de vers e asa:
E|--------------------------------------------------------
B|-----------------------------------------------5--------
G|--------------------------------------------------------
D|--------7-----------7-----------7-----------7-----7-----
A|-----4-----4-----4-----4-----4-----4-----5-----------5--
D|--4-----------4-----------4-----------0-----------------
In continuare cu:

E|--------------------------------------------
B|--------------------------------------------
G|-----------------------------------4--------
D|--------7-----------7-----------7-----7-----
A|-----4-----4-----4-----4-----5-----------5--
D|--4-----------4-----------0-----------------

Dupa ce intro-ul este facut de 3 ori,peste el intra chitara de distors:

P.M|-------------------------------------
E|--------------------------------------------
B|--------------------------------------------
G|--------------------------------------------
D|--4--4--4--4--4--4--0--0--4--4--4--4--4--7--
A|--4--4--4--4--4--4--0--0--4--4--4--4--4--5--
D|--4--4--4--4--4--4--0--0--4--4--4--4--4-----

Armonicele dinainte de refren:sunt armonice naturale,nu sunt sigur daca sunt corecte mi s-au parut apropiate de sunetele alea

E|--7x--7x--7x--
B|--7x--7x--7x--
G|--7x--7x--7x--
D|--------------
A|--------------
D|--------------
		

Refren:
                            
E|-----------------          
B|-----------------
G|-----------------
D|--4--4--4--4--4--
A|--4--4--4--4--4--
D|--4--4--4--4--4--            


E|-----------------
B|-----------------
G|-----------------
D|--7--7--7--7--7--
A|--7--7--7--7--7--
D|--7--7--7--7--7--



E|-----------------
B|-----------------
G|-----------------
D|--0--0--0--0--0--
A|--0--0--0--0--0--
D|--0--0--0--0--0--




E|-----------------
B|-----------------
G|-----------------
D|--9--9--9--9--9--
A|--9--9--9--9--9--
D|--9--9--9--9--9--


E|-----------------          
B|-----------------
G|-----------------
D|--4--4--4--4--4--
A|--4--4--4--4--4--
D|--4--4--4--4--4--            


E|-----------------
B|-----------------
G|-----------------
D|--7--7--7--7--7--
A|--7--7--7--7--7--
D|--7--7--7--7--7--

E|--------------------------------
B|--------------------------------
G|--------------------------------
D|--2--2--2--2--2--2--2--2--2--2--
A|--2--2--2--2--2--2--2--2--2--2--
E|--2--2--2--2--2--2--2--2--2--2--