Vița de Vie - Miracolul

Intro.

Asus2 
|--------------------------------
|--0-----------------------------
|--------------------------------
|-----2------------2-------------
|------------------0-------------
|----------0---------------------

Asus2
|--------------------------------
|--------------------------------
|--0-----------------------------
|-----2---------------2----------
|---------------------0----------
|----------0---------------------

Asus2 
|--------------------------------
|--0-----------------------------
|--------------------------------
|-----2------------2-------------
|------------------0-------------
|----------0---------------------

Am
|-------------
|-------------
|--0----------
|----2--------
|----------0--
|------0------

|--------------------------------
|-----------------------0--------
|--0-----------------------------
|-----2------------2-------------
|------------------0-------2-----
|----------0--------------------- x2 

|--------------------------------
|-----------------------12(harm.)
|--0-----------------------------
|-----2------------2-------------
|------------------0--------0----
|----------0---------------------

|--------------------------------
|--0-----------------------------
|----------------------0---------
|-----2------------2------2------
|------------------0---------1---
|----------0---------------------

Fara sa schimbam pre mult
Vreau sa'ncerc sa te ascult.
Tu da-mi doina ta senina
Si m'alina-n visl tau!
Vreau sa'ncerc sa-ti spun si eu
Taina cantecului meu
Suflet obosit ce doare, visatoooare...

(pe aceste versuri se canta partea de intro)

Dm		C		Bb
Cat sa credem ca complac
  C				Dm
Ca om vrea si nu om da?!
Dm		C		Bb		C
Cat sa pierdem, cat sa dam, fiecare!

	Dm		C
Ref. Ne luam de mana
	Bb		C
	Caci vrem sa ramana
	O taina ce'ngana 
	Raspunsul in noi.
	Stai langa mine
	Caci vraja te tine,
									Dm
	Si doar un fior e un nor, e un nor...pentru noi.

Feluritele cuvinte
Se ascund in taina lor,
Si mirate, adunate,
Intelesul inpresor.
Vrem sa spunem ca ne pasa,
Ca ne lasa'n urma lor,
Fermecati le dam culoare,
De ce oare?! 

(pe acste versuri se canta partea de intro)

Ne prefacem ca am dat,
Ca am vrut si ca am luat
Doar o amagire pentru fiecareee!

Ref. Ne luam de mana
	Caci vrem sa ramana
	O taina ce'ngana 
	Raspunsul in noi.
	Stai langa mine
	Caci vraja te tine,
	Si doar un fior e un nor, e un nor...

Dm	C
Aaa, Aha, 
Bb		C
Miracolul e-n noi.
Owow, Aha,
Miracolul e-n noi.


P.S.Daca reuseste cineva sa transpuna soloul sa ma anunte:D