Vița de Vie - Miracolul (intro)

Este doar intro-ul.Din pacate, nu prea pot sa-mi dau seama care sunt si acordurile.
Enjoy!
	Asus2			Cmaj7			Csus4		Dsus2
E|----------------0-|--------------0-|------------0-|----------0-----------|
B|----------------0-|--------------0-|------------0-|-------3-----3-----3--|
G|-----------2------|---------0------|--------2-----|----2-----------2-----|
D|------2-----------|----2-----------|-----3--------|-0--------------------|
A|-0----------------|-3--------------|-3------------|----------------------|
E|------------------|----------------|--------------|----------------------|

E|----------------0-0--|----------0-0--|-------------0-(12)|----------0----------|
B|----------------0---0|----------0---0|-------------0-(12)|-------3-----3-----3-|
G|-----------2---------|-------0-------|--------2----------|----2-----------2----|
D|------2--------------|----2----------|----3--------------|-0-------------------|
A|-0-------------------|-3-------------|-3-----------------|---------------------|
E|---------------------|---------------|-------------------|---------------------|

Nu sunt foarte sigur de numele acordurilor:
Asus2 x02200
Cmaj7 x32000
Csus4 x33200
Dsus2 xx0230

*Update:Denumirile acordurilor (thx andy_1 ^_^)

Transpunerile de pe acest site reprezintă viziunea personală a utilizatorilor asupra pieselor.
21e658480757fb010c8b278ef5593164
f7e9d1d2-ebba-44ba-8198-e810bddf71a6