Vița de Vie - Neviu

  • (1 voturi)
  • Contribuție:  vladalmond
  • Ultima actualizare: 22.04.2015
Vita de vie - NEVIU (varianta acustica)


C  032033
Em 022033
G  320033 sau 3x0033
A  002233



Refren
C    Em  C                   Em
Spune-mi ce s-a intamplat cu mine
	  C Em          G            A           
De ce de-odata am renuntat de tot la viata mea
C    Em  C                   Em
Spune-mi ce s-a intamplat cu mine
	  C Em           G              A  
De ce de-odata nu pot sa ma trezesc la viata

C    Em  C                   Em
Spune-mi ce s-a intamplat cu mine
	  C Em          G            A           
De ce de-odata am renuntat de tot la viata mea


Pasaj C Em C Em C Em G A (la fel ca pe versuri) 
--- la acordul Em se poate face hammer-on (0->2) pe coarda D (Re) --- 020033 inainte de 022033--

Pe strofa acordurile pot fi cantate si cu fingerpicking

-------------------------------
-------3---------------3-------
-----0---0-----------0---0-----
---2-------2-------2-------2---
-3---------------------------3-
---------------0---------------
       Am  ramas la fel ca ieri 

-----------------------------
-------3---------------3-----
-----0---0-----------0---0---
---2-------2-------2-------2-
-----------------------------
---------------0-------------
  nu m-am schimbat

------------------------------
--------3---------------3-----
------0---0-----------0---0---
----2-------2-------2-------2-
-3----------------------------
----------------0-------------
        Am  visat prea mult dar

--------------------------------
--------3-----------------3-----
------0----0------------2---2---   
---0---------0-------2--------2-
-----------------0--------------
-3------------------------------
 inca   n-am     uitat

Strofa 

Am ramas la fel ca ieri nu m-am schimbat
Am visat prea mult dar inca n-am uitat
Insa tot in jurul meu e diferit
Fiecare pas e unul ocolit
Incerc sa ma trezesc
Mi-e frica sa privesc
Incerc sa cred ca inca mai traiesc

Refren

Spune-mi ce s-a intamplat cu mine
De ce de-odata nu pot sa ma trezesc la viata
Spune-mi ce s-a intamplat cu mine
De ce de-odata am renuntat de tot la viata mea

Strofa

Ochii nu pot sa-i deschid sunt mult prea grei
Corpul nu-l mai simt si vreau sa stiu de ce
Totusi ma ridic incet dar nu sunt eu
Stau intins pe pat si in picioare sunt tot eu
Incerc sa ma trezesc
Mi-e frica sa privesc
Incep sa cred ca inca mai traiesc

Refren 

Spune-mi ce s-a intamplat cu mine
De ce de-odata nu pot sa ma trezesc la viata
Spune-mi ce s-a intamplat cu mine
De ce de-odata am renuntat de tot la viata mea
Unde-i viata mea?...