Vița de Vie - Nod 'n'gat

Album:          Fenomental

 [ Intro ]  

        (x2)
E]---0--1--3---0--3---0--3---7\8/7\8
B]----------------------------------
G]----------------------------------
D]----------------------------------
A]----------------------------------
E]---0--1--3---0--3---0--3----------
 
 
E]---0--1--3---0--3---0--3---3---4--3--2
B]--------------------------------------
G]--------------------------------------
D]--------------------------------------
A]--------------------------------------
E]---0--1--3---0--3---0--3--------------
 
[si acuma intra imediat acordurile C, Am, Dm, G 
(ascultati melodia pentru ritm, e simplu!) ]
 
C               Am
drept sa va spun
Am       Dm     G
un lucru bun
G           C   Am
n-am mai patit
Am          Dm          G
de prea mult timp
 
C                  Am
nici la fotbal nu ma uit
Dm               G
nici la radio nu ascult
 
C                   Am
iar vecina nu-mi mai place
Dm  G
de mult
C                 Am    Dm      G
are un caine care latra mult prea mult
 
 
                C                      Am  Dm G
 [ Refren (cred) ]  Am un mare, mare, mare nod in gat.
 
*** La refen nu sunt prea sigura, poate descoperiti voi si-mi spuneti si mie.
 
*** Era sa uit. Pe melodie, Sorin Danescu face un solo pe pian, 
care vine pe G si se termina cand intra C, cam asa ceva:
 
     G                         C
E]---3----9--6------------------
B]---3----------7--4-----1------
G]------------------------------
D]------------------------2-----
A]---2-------------------3------
E]---3--------------------------