Vița de Vie - Ozosep

Album:          Rahova

***Piesa am scos-o azi pe chitara, iar asta e prima varianta, suna putin 
aiurea prin unele locuri, dar promit sa o perfectionez.
*** Si daca vi se pare prea complicat, se canta foarte usor pe acordurile G, D, A
 
e---3-0-3--3-0-3--5-7-8-7-5-7-8-----
B-----------------------------------
 
e---0-0-0-0-0-0-0-------------------            
B---8-5-6-3-5-1-1-------------------    
 
***Se poate canta si fara partea de pe coarda MI
 
e---3-0-3--3-0-3--5-7-8-7-5-7-8-----
B-----------------------------------
 
e---7-7--10-10--12-9-10-7-5---------
B-----------------------------------
 
e---12-12--10-10--8-8--7-8-10-10-5--
B-----------------------------------
 
e---10-10--8-8--7-7--5-7-8-8-3------
B-----------------------------------
 
 
Ozosep, Ozosep, 
Mandra mea sa-ti dau un cep 
Pe o muzica de rap
Ozosep, Ozosep, 
Vreau si eu un pic de piept, 
Eu nu pot deloc sa mai astept.
 
Pai si pe urma draga mea,
Sa stai un pic,
Sa-ti arate Ianos cat este de sic.
Ozosep, Ozosep,
Eu pe tine te ador, 
Pentru tine poate ma omor.
Ozosep, Ozosep, 
Tu ma faci sa calc pe bec 
Si sa-l scutur pe berbec.
Ozosep, Ozosep,
Hai sa facem intr-un fel
Caci altfel eu am s-o fac pe cer
 
Hai vino-ncoa si numai fa-o,
Atata-ti spun,
Stai cuminte draga sa-ti dau cu sapun.
Ozosep, Ozosep,
Ai rabdare step by step,
Primul pas este ca sa te-ncerc.
 
Ozosep, Ozosep,
Cand te vad inghit in sec,
Naduselile ma trec.
Ozosep, Ozosep,
Zi fetita mea un pret,
Sa-i dam calului nutret.
 
Pai fata mea,
Acum as vrea sa stai pe loc,
Sa te-nvarta Ianos
P-aci dintr-un foc,
Ozosep, Ozosep,
Cu tine vreau sa petrec
Si pe urma s-o stingem la bec.
6Ld5REUUAAAAAA1PBEDya2BDGnf5rYKeKnmYm4Cz
804a3f5ead4aef3d79f65f165a496b0a