Vița de Vie - Ozosep (tab)

  • (1 voturi)
  • Contribuție:  anonimu
E|---3-0-3---3-0-3--5-7-8-7-8-5-7-8-------------|    Vers
B|-----------------8-6-3-5-----1-1-1-1----------|
G|----------------------------------------------|
D|----------------------------------------------|
A|----------------------------------------------|
E|----------------------------------------------|


E|---12-12-10-10-8-8-7-8-10-10---5--------------|
B|----------------------------------------------|
G|----------------------------------------------|
D|----------------------------------------------|     Refren
A|----------------------------------------------|
E|----------------------------------------------|

E|---10-10-8-8-7-7-5-7-8-8-3--------------------|
B|----------------------------------------------|     Refren
G|----------------------------------------------|
D|----------------------------------------------|
A|----------------------------------------------|
E|----------------------------------------------|
b9c8226d376497150fa6a65213ebec2b
6Ld5REUUAAAAAA1PBEDya2BDGnf5rYKeKnmYm4Cz