Vița de Vie - Praf de stele

6/8

Intro:  C9 / D9 / Em7 / G6 /
        C9 / D9 / Em7 / G6 /

Strofa:  C9 / C9 D9 / Em7 / Em7 /
         C9 / C9 D9 / Em7 / Em7,9 Em7 /
         C9 / C9 D9 / Em7 / Em7 /
         C9 / C9 D9 / Em7 / Em7,9 Em7 /

Refren:  C9 / D9 / Em7 / G6 /
         C9 / D9 / Em7 / G6 /

Strofa:  C9 / C9 D9 / Em7 / Em7 /
         C9 / C9 D9 / Em7 / Em7,9 Em7 /
         C9 / C9 D9 / Em7 / Em7 /
         C9 / C9 D9 / Em7 / Em7,9 Em7 /

Refren:  C9 / D9 / Em7 / G6 /
         C9 / D9 / Em7 / G6 /
         C9 / D9 / Em7 / G6 /
         C9 / D9 / Em7 / G6 /

Solo:  Em7 / G6 / Em7 / G6 /
       Em7 / G6 / Am / C /

Refren:  C9 / D9 / Em7 / G6 /
         C9 / D9 / Em7 / G6 /
         C9 / D9 / Em7 / G6 /
         C9 / D9 / Em7 / G6 /
         C9 ...

Pentru refren se mai poate si :
         
         C9 / D4 D / Em7 / G6 /
         C9 / D4 D / Em7 / G6 /

Nu o sa gasiti nicaieri o varianta mai buna;)

poate o sa va ajute dictionarul meu de acorduri:

C9

--||-------------------
--||-------3-----------
--||-------------------
--||-------2-----------
--||-------3-----------
--||-------------------


D9

--||-------------------
--||-------3-----------
--||-------2-----------
--||-------------------
--||-------------------
--||-------------------


Em7

--||-------------------
--||-------3-----------
--||-------------------
--||-------2-----------
--||-------2-----------
--||-------------------


G6

--||-------------------
--||-------3-----------
--||-------------------
--||-------------------
--||-------2-----------
--||-------3-----------


Em7,9

--||-------3-----------
--||-------3-----------
--||-------------------
--||-------2-----------
--||-------2-----------
--||-------------------

Transpunerile de pe acest site reprezintă viziunea personală a utilizatorilor asupra pieselor.
70d7780bcd9c41996a2d60d1d55c819f
f7e9d1d2-ebba-44ba-8198-e810bddf71a6