Vlad Puștai - Ochi aprinsi

Intro:

e|-------------------------------------0-------0----------------------|
B|------1-------1-------1-------1--------1-------1-------1-------1----|
G|----0---0---0---0---0---0---0---0--------0-------0---0---0---0---0--|
D|--2-------3------------------------2-------3------------------------|
A|------------------3-------2------------------------3-------2--------|
E|--------------------------------------------------------------------|

e|-------------------------------------------------------------------|
B|------1-------1-------1-------1-------1-------1-------1-------1----|
G|----0---0---0---0---0---0---0---0---0---0---0---0---0---0---0---0--|
D|--2-------3-----------------------2-------3------------------------|
A|------------------3-------2-----------------------3-------2--------|
E|-------------------------------------------------------------------|
    Ziua    care    va          veni

e|-------------------------------------------------------------------|
B|------1-------1-------1-------1-------1-------1-------1-------1----|
G|----0---0---0---0---0---0---0---0---0---0---0---0---0---0---0---0--|
D|--2-------3-----------------------2-------3------------------------|
A|------------------3-------2-----------------------3-------2--------|
E|-------------------------------------------------------------------|
   N-are nimic sa-mi poata  oferi


Ziua care va veni
N-are nimic sa-mi poata oferi.
O speranta-n plus,
O viata la apus,
Ce-am avut mai scump s-a naruit.
Cine m-a iubit
Sa-mi ia-n apoi tot raul ce-am primit.
O sa ma ridic
Si o sa-mi explic
Tot ce e confuz in viata mea.
Tot raul din tine acum apare,
Tot ce-am fost noi acum dispare,
Te retragi dar ochii-ti sunt aprinsi.

Transpunerile de pe acest site reprezintă viziunea personală a utilizatorilor asupra pieselor.
74a7f6c4be3d474e7cc7f05b1ba997bc
f7e9d1d2-ebba-44ba-8198-e810bddf71a6