Vlad Pustai - Umbra pasilor mei

Capo 3rd fret

h = hammer on
p = pull off
/ = slide

e|----------------------------0---------------------------------------------0--|
B|--------1/3-0-----------1/3---3---------1/3-0-----------------------------1--|
G|------2-------2-------2---------2-----2-------2-------0-----------------2----|
D|----2-----------2---2---------------2-----------2---2-----2h3p2-0-0h2--------|
A|--0---------------0---------------0---------------3-----2-------------0------|
E|-----------------------------------------------------------------------------|

E|------0---0--------------0----------------0---------3-----------------0------|
B|--1---1---1--------------1-1--------------1---------3-----------0--------0---|
G|----2---2-------------2-------2-------0------0----0---0-----1-----1----------|
D|-------------------2---------------------------------------------------------|
A|-----------------0--------------0---3----------------------------------------|
E|------------------------------------------------3---------0------------------|
              Sunt zile in care pare nimeni ca n-are, Un raspuns sa-mi dea la

e|-----------0-------------0----------------0-------------3-----|
B|---0-------1-1-----------1---1------------1-------------3-----|
G|-1-------2-----2------2----------2----0------0--------0---0---|
D|-------2------------2-----------------------------------------|
A|-----0-----------0------------------3-------------------------|
E|---------------------------------------------------3----------|
   Orice      Urma pasilor mei se-ntrevede printre proaste idei

Am
Sunt zile in care
      C          G
Pare nimeni ca n-are
E                          Am
Un raspuns sa-mi dea la orice.
Am
Urma pasilor mei 
       C                      Am
Se-ntrevede printre proaste idei.

Sunt adesea aceia 
Ce au mintea-ntuneric
Pe drum stralucitor.
Mai privesc la fereastra 
Acea lume nefasta din noi.

Oare cine-o sa poata
Sa schimbe vreodata
Lumea patata de voi?
Nu vreau sa cred ca exista
Atata prostie-ntre noi.

Sunt zile in care
Pare nimeni ca n-are
Un raspuns sa-mi dea la orice.
Urma pasilor mei 
Se-ntrevede printre proaste idei.
  • cfv1000
    3 mai 2013 08:49
    O mica corectie:


    C Em Am
    Se-ntrevede printre proaste idei.
  • RARESh
    29 martie 2011 12:56
    Super piesa!
  • yama12
    10 februarie 2011 16:12
    E superba piesa
  • Vlad Pustai
    25 aprilie 2010 20:27
    "Nu vreau sa cred ca exista" ...
6Ld5REUUAAAAAA1PBEDya2BDGnf5rYKeKnmYm4Cz
33c4d5ff00dbd0452a711cfa2235d007