Voltaj - E si maine o zi

  • Contribuție:  fakemail2x
NOTE:

 Acordul notat "C2" este C-ul cu barre in octava a 2 a(tasta 12). pentru 
a evita tasta 12(ca poate nu o aveti sau e incomoda) puteti canta un C 
"normal"

 Recomand a se folosi numai urmatoarele forme cu barre:
	F    pentru A# C G D
	Am   pentru Dm
	C    pentru C2
Desi pare ciudat va cer sa nu faceti acorduri/forme precum C-ul in variante
 standard, mie imi pare ca suna mult mai bine pentru melodia asta asaplus 
ca e mai usor de trecut dintr-una intr-alta .
Recomand urmatoarele prinderi(ca sa fiu mai explicit):
(evident acorduri cu barre)

A# (688766) [F in tasta 6]
Dm (557765) [Am in tasta 5]
C (8 10 10 9 8 8) [F in tasta 8]
G (355433) [F in tasta 3]
D (10 12 12 11 10 10) (F in tasta 10)

 Nu e neaparat sa faceti riffurile de dupa refren dar suna bine.

Ciupitura:

[Intro]
e|---------------------------5--5--5-5-55-55-4-1---------------------|
B|-5--5-5--5-5--55-55-4---------------------------5--5--0-5-2-1-3----|
G|----------------------6-3------------------------------------------|
D|-------------------------------------------------------------------|
A|-------------------------------------------------------------------|
E|-------------------------------------------------------------------|

[Dupa Refren]
e|-----------5-5-3-5-3-1-----------------------|
B|-3-5-6-6-5-------------5-6-6-5-3-3-1-1-0-1---|
G|---------------------------------------------|
D|---------------------------------------------|
A|---------------------------------------------|
E|---------------------------------------------|

e|-----------5-5-3-5-3-1-----------------------|
B|-3-5-6-6-5-------------5-6-6-5-5-8-7-7-5-7---|
G|---------------------------------------------|
D|---------------------------------------------|
A|---------------------------------------------|
E|---------------------------------------------|


Intro: 
A# Dm C2 A#
A# Dm C2 A#


Vers:
A#		   Dm
Si pun pariu ca ai iubit candva
A#	    C		Dm
Credeai ca-i jumatatea ta
A#			C	A#		C
Si-ai plans o noapte-ntreaga, cand a plecat in graba
A#		C	Dm
Simteai ca-i gata viata ta.


Bridge:
A#			 C		  A# C
Dar de maine toate astea nu vor mai conta
A#		C	A#
Daca-ncerci sa spui asa:


Refren:
Dm	      A#
Am sa trec si peste asta
A#	    C
Ce va fi va fi
Dm		C		A#
Am sa strig iar "Asta-i viata!"
A#
E si maine o zi.

Riff:
G A A# A D C D C A#
A A# A A# A A# A G

Vers:
A#		  	 Dm
Si pun pariu ca ti-ai dorit candva
A#	    C		Dm
Ceva ce n-ai putut avea
A#		    C	A#		C
Si te-ntrebai cum oare, doar altii pot sa zboare
A#	  C	      Dm
S-ajunga ei la steaur ta.


BBridge:
A#			 C		  A# C
Dar de maine toate astea nu vor mai conta
A#		C	A#
Daca-ncerci sa spui asa:


Refren:
Dm	      A#
Am sa trec si peste asta
A#	    C
Ce va fi va fi
Dm		C		A#
Am sa strig iar "Asta-i viata!"
A#
E si maine o zi.

Riff:
G A A# A D C D C A#
A A# A A# A A# A G
6Ld5REUUAAAAAA1PBEDya2BDGnf5rYKeKnmYm4Cz
5c9daf925e40a63c3e1af1c3ec35fc4a