Voltaj - Vara trecuta (acoustic) intro

  • (2 voturi)
  • Contribuție:  Buci
E||--------0------------------------------------------
B||--------1------------------------------------------
G||--------0--------------------------0------------0--
D||--------2--2^4--4--7--4--0/2---2------0/2---2------
A||--0/2-3-3--3^5-------------------2------------2----
E||-----------------------------0------------0--------

E||--------0------------------------------------------
B||--------1------------------------------------------
G||--------0--------------------------0------------0--
D||--------2--2^4--4--7--4--0/2---2------0/2---2------
A||--0/2-3-3--3^5-------------------2------------2----
E||-----------------------------0------------0--------
6Ld5REUUAAAAAA1PBEDya2BDGnf5rYKeKnmYm4Cz
69c8267e2255975f2669721ad301e1c7