Zdob și Zdub - Doina Haiducului (intro)

  • (1 voturi)
  • Contribuție:  rocked_viking
  • Ultima actualizare: 10.01.2010
O  O  O  O  O  O  S  S  O     S  S  O  S  S  O  O  O  O  O   
E||------5--------5-----3h-5p-3--|--1h-3p-1--0h-1p-0-----5--------|
B||---3-----3--3-----3-----------|--------------------3-----3--3--|
G||*-----------------------------|--------------------------------|
D||*-----------------------------|--------------------------------|
A||------------------------------|--------------------------------|
E||------------------------------|--------------------------------|


  O  O  S  S  O  S  S  O  S  S  O   4x
--5-----3h-5p-3--1h-3p-1--0h-1p-0---||
-----3------------------------------||
-----------------------------------*||
-----------------------------------*||
------------------------------------||
------------------------------------||


Legenda
---------------
I  - nota intreaga
D  - doime
P  - patrime
O  - optime
S  - saisprezecime
h  - hammer on
p  - pull off
6Ld5REUUAAAAAA1PBEDya2BDGnf5rYKeKnmYm4Cz
6981e92aece0d4d85f700081329f68d3