Zdob și Zdub - Draga Otee

Solo de intro:

E||----------------------------------------------|
B||----------------------------------------------|
G||----------------------------------------------|
D||--12-10----12-10----10-------10---------------|
A||--------13-------13----13-12----13-12-10------|
E||------------------------------------------13--|


-----------------------------------------------|
-----------------------------------------------|
-----------------------------------------------|
-----------------------12-10----12-10----10----|
----------------10-12--------13-------13----13-|
--12--10s-12-13--------------------------------|


------------------------------------||
------------------------------------||
------------------------------------||
-----10-----------------------------||
--12----13-12-10--------------------||
------------------13--12--10--10----||

Em     C     D7      G
Dragă Oteee, dulce mireasmă
Am        Em       B7       Em
La gură femeie, la mijloc mireasă
Em     C     D7      G
Dragă Oteee, dulce mireasmă
Am       Em        B7       Em
La gură femeie, la mijloc mireasă

(... vocea crescendo)

B7      Em     D     D
Curge izvorul, grâul rasare
Am       Em        B7     Em
Acolo pe unde trec urmele tale
Em     C     D7       G
Vălură dorul des ca o iarbă
Am       Em     B7      Em
Parcă răspunde, parcă intreabă
Em     C     D7       G
Vălură dorul des ca O iarbă
Am       Em     B7      Em
Parcă răspunde, parcă intreabă

Chitara I urmeaza progresia: C-G-B7-Em x2

In timp ce chitara II:

     s  s s  s  s s  s s s  s s s  s s s  s s s o o o
E||-12-10-8-12-10-8-10-8-7-10-8-7-------------------7-|
B||-------------------------------10-8-7-10-8-7---8---|
G||---------------------------------------------9-----|
D||---------------------------------------------------|
A||---------------------------------------------------|
E||---------------------------------------------------|

     s  s s  s  s s  s s s  s s s  s s s  s s s p
E||-12-10-8-12-10-8-10-8-7-10-8-7---------------0-|
B||-------------------------------10-8-7-10-8-7-0-|
G||---------------------------------------------0-|
D||---------------------------------------------2-|
A||---------------------------------------------2-|
E||---------------------------------------------0-|

Em     C     D7      G
Dragă Oteee, dulce mireasmă
Am        Em       B7       Em
La gură femeie, la mijloc mireasă
Em     c     D7      G
Dragă Oteee, dulce mireasmă
Am       Em        B7       Em
La gură femeie, la mijloc mireasă

B7      Em     D     D
Curge izvorul, grâul rasare
Am       Em        B7     Em
Acolo pe unde trec urmele tale
Em     C     D7       G
Vălură dorul des ca o iarbă
Am       Em     B7      Em
Parcă răspunde, parcă intreabă
Em     C     D7       G
Vălură dorul des ca O iarbă
Am       Em     B7      Em
Parcă răspunde, parcă intreabă

Note: Tempo 4/4
Melodie transpusa in Em (din C#m cred...)

Legenda tab: O-optime; P-patrime; s-saisprezecime
  • dicanel
    23 ianuarie 2018 13:42
    @calinplop, și eu sunt începător, însă bănuiesc că cifrele respective sunt tastele („freturile”). Astfel, 12 reprezintă tasta a douăsprezecea de pe coarda a patra (re), 10 este a zecea tastă de pe aceeași coardă, 13 este a treisprezecea tastă de pe coarda a cincea (la) și tot așa.
  • Osiris
    27 aprilie 2009 14:37
    solo inseamna ca numai o chitara canta iar cifrele reprezinta casuta unde trebuie sa apesi coarda respectiva (corzile sunt E =coarda subtire B G D A E = coarda groasa (se numeroteaza casutele de la 1 la 18 incepand cu casuta cea mai apropiata de cheite)
6Ld5REUUAAAAAA1PBEDya2BDGnf5rYKeKnmYm4Cz
91bed454a55c2fc667248b11dc381cd0