Zdob și Zdub - Maria blues (solo)

  • (1 voturi)
  • Contribuție:  astenix
E -----------------------------------------------------------------------
B -----------------------------------------------------------------------
G -----------------------------------------------------------------------
D -----------------------------------------------------------------------
A ---1-2~~~-----2-1------------1-2~~~--2-1-------------------------------
E --------------------------3-2-0----------------------------------------

E -----------------------------------------------------------------------
B -----------------------------------------------------------------------
G -----------------------------------------------------------------------
D ------------------------0-2~~~-------------------4-4-4----4-4----4-4>5-
A -----------0---2-3---------------3--2--0~~-----------------------------
E --0-2-3----------------------------------------------------------------
6Ld5REUUAAAAAA1PBEDya2BDGnf5rYKeKnmYm4Cz
34c75dda204ad01c388316504c09eea6