Zdob și Zdub - Videli Noch (Bass)

Zdob si Zdub-Videli noch -Tab pentru bass

A fost un pic mai dificil sa-l pun la punct
pentru ca nu am bass la indemana
(m-am folosit de chitara acustica).
Tabul asta e valabil pentru acordurile F, C, Dm, Bbm

Mi visli iz doma....                                   
G-----------|-----------|------------|-----7--10---  
D-----7--10-|-----------|----------7-|-8-----------  
A--8--------|-----7--10-|------8-----|-------------
E-----------|-8---------|-10---------|-------------

Refren:
Videli noci...          guleali vsiu...
G--10--------10--------|----------------------|--7--------7-----|--------------------|-|
D-------10--------10---|--10--------10--------|-------7-------7--|---8------8--------|-|
A----------------------|-------10---------10--|------------------|-------8------8----|-|
E----------------------|----------------------|------------------|-------------------|-|

Sau se poate ca basul sa fie acordat in C, F, A#, D#, ceea ce inseamna ca:

D#---------------|----------|------------|--------2-|
A#------------2--|----------|------------|--0--4----|    
F ----0--4-------|--------2-|------0--4--|----------|    
C ---------------|--0--4----|---2--------|----------|    

Refren:
D# --2-----2--|------------|------------|------|
A#-----2----2-|--2-----2---|-4------4---|------|
F-------------|----2-----2-|----4-----4-|--5---|
C-------------|------------|------------|----5-|
6Ld5REUUAAAAAA1PBEDya2BDGnf5rYKeKnmYm4Cz
063155e164631be19fdf5f2fb050913e