Zdob și Zdub - Zdubii bateti tare (intro)

Zdubii bateti tare intro chitara, gp5 tab
Nu cred ca e perfect dar cred ca poate fi folosit ca un inceput

D |-----------------------------------------------------------------------------
A |-----------------------------------------------------------------------------
F |--------------------------------------14----------13----------11----------10h
C |--11~------------------------------------------------------------------------
G |-----------------------------------------------------------------------------
D |-----------------------------------------------------------------------------


-----------------------|
-----------------------|
11h10------------------|
---------11------------|
-----------------------|
-----------------------|


--------------------------------------------------------------------------------
--------------------------------------------------------------------------------
--10~---------------------------------13----------11h13h11----10----------------
--------------------------------------------------------------------------11----
--------------------------------------------------------------------------------
--------------------------------------------------------------------------------


--------------------|
--------------------|
--------------------|
------12------------|
--------------------|
--------------------|


--------------------------------------------------------------------------------
--------------------------------------------------------------------------------
--------------------------------------14----------13----------11----------10h11h
--11~---------------------------------------------------------------------------
--------------------------------------------------------------------------------
--------------------------------------------------------------------------------


--------------------|---------------------------||
--------------------|---------------------------||
10------------------|--10~---10-11-13-10-11----o||
------11------------|-----------------------12-o||
--------------------|---------------------------||
--------------------|---------------------------||


--------------------------------------------------------------------------------
--------------------------------------------------------------------------------
--------------------------------------11h------10h11----------------------------
--9~----------------------------------------------------------12----------11----
--------------------------------------------------------------------------------
--------------------------------------------------------------------------------


--------------------|----------------------------||
--------------------|----------------------------||
--------------------|--------10-11-13-10-11------||
------9-------------|--11~------------------12---||
--------------------|----------------------------||
--------------------|----------------------------||
6Ld5REUUAAAAAA1PBEDya2BDGnf5rYKeKnmYm4Cz
3313680141cba0e54a0ecec7b4d59c74