Zob - Ploaia

  • (13 voturi)
  • Contribuție:  anonim163
------------------------------------------------------------------ 
------------------------------------------------------------------ 
-4--------------------------------------------------9-------------  
-4----------------6----------------4----------------9------------- 
-2----------------6----------------4----------------7------------- 
------------------4----------------2------------------------------ 


si chitara  solo  
  
------------------------------------------------------------------ 
-0--4--0-7--5--4--0--4--0-7--5--4--0--4--0-7--5--4--2--5--4--2-0-- 
------------------------------------------------------------------ 
------------------------------------------------------------------ 
------------------------------------------------------------------ 
------------------------------------------------------------------
6Ld5REUUAAAAAA1PBEDya2BDGnf5rYKeKnmYm4Cz
c0cdc7b34cefb30a4dc5cf6eaeb302f7