Zob - Ploaia

  • (2 voturi)
  • Contribuție:  underscore
  • Ultima actualizare: 20.11.2011
Intro:

 A F#m D E

B---2---5-3-2-----2---5-3-2-----2---5-3-2----3-2---3-2--3-2-----
G-2---2---------2---2---------2---2--------------4----4-----4-2--  X2

Strofa 1:
  A                    F#m
Se stie unora le place marea
    D                         E
Iar altii canta despre Mos Craciun
   A                    F#m
Haotic unii-admira primavara
    D                              E
Dar eu in ploaie stiu ca-s cel mai bun

Refren:
           A
Si-atuncia ies in ploaie,
F#m
Cant in ploaie
D                           E
Asta-i tot ce mi-a ramas sa fac      
Si-mi place tare

A
Ies in ploaie,
F#m
Cant in ploaie
D               E
Cu fiecare picatura
Te iubesc mai mult

A F#m D E

B---2---5-3-2-----2---5-3-2-----2---5-3-2----3-2---3-2--3-2-----
G-2---2---------2---2---------2---2--------------4----4-----4-2--  X2 

Strofa 2

   A                               F#m
Oricat as vrea ca ea sa nu se opreasca
   D                        E
Sa ia tot ce-i urat si fara rost
   A                        F#M
Sa duca toate astea-colo departe
D                            E 
Apoi sa-mi povesteasca cum a fost

Refren:
          A
Si eu sa ies in ploaie,
F#m
Cant in ploaie 
D                           E
Asta-i tot ce mi-a ramas sa fac
Si-mi place tare

A
Ies in ploaie,
F#m
Cant in ploaie
D               E
Cu fiecare picatura
Te iubesc mai mult 

A F#m D E

B---2---5-3-2-----2---5-3-2-----2---5-3-2----3-2---3-2--3-2-----
G-2---2---------2---2---------2---2--------------4----4-----4-2--  X2

A F#m D E

B---2---5-5-5-----2---5-7-5-----2---5-3-2----3-2---3-2--3-2-----
G-2---2---------2---2---------2---2--------------4----4-----4-2--


B---2---5-3-2-----2---5-3-2-----2---5-3-2----3-2---3-2--3-2-----
G-2---2---------2---2---------2---2--------------4----4-----4-2--

Refren:
          A
Si eu sa ies in ploaie,
F#m
Cant in ploaie 
D                           E
Asta-i tot ce mi-a ramas sa fac
Si-mi place tare

A
Ies in ploaie,
F#m
Cant in ploaie
D               E
Cu fiecare picatura
Te iubesc mai mult 

A F#m D E

B---2---5-3-2-----2---5-3-2-----2---5-3-2----3-2---3-2--3-2-----
G-2---2---------2---2---------2---2--------------4----4-----4-2--  X2

A F#m D E

B---2---5-5-5-----2---5-7-5-----2---5-3-2----3-2---3-2--3-2-----
G-2---2---------2---2---------2---2--------------4----4-----4-2--


B---2---5-3-2-----2---5-3-2-----2---5-3-2----3-2---3-2--3-2-----
G-2---2---------2---2---------2---2--------------4----4-----4-2--2-
  • alecz93
    16 martie 2014 15:58
    Perfecta transpunere :)
6Ld5REUUAAAAAA1PBEDya2BDGnf5rYKeKnmYm4Cz
00e717f7a5957e667312fb97887f8712