Ce este o tabulatură?

Notaţia pe bază de tabulaturi este o notaţie muzicală simplificată pentru chitara. În acest tip de notaţie, fiecărei corzi îi corespunde o linie de tabulatură. Așadar, o chitară care are șase corzi, și care este acordată standard, ar arăta în notația de tabulatură astfel:

E||-------||
B||-------||
G||-------||
D||-------||
A||-------||
E||-------||

Așa cum se vede din schema de mai sus, pentru a denumi corzile, se folosesc litere din alfabet. Aceste litere corespund cu denumirea notei muzicale care se obține dacă ciupim coarda liber. (E bine de știut că, în lumea muzicală, notele se pot identifica și prin litere, nu doar prin simboluri ca în cărțile de muzică.)

Pentru a nu complica lucrurile, pentru început e important să reținem doar faptul că cea mai de sus linie din tabulatură corespunde cu cea mai de jos (sau cea mai subțire) coardă de pe chitară. Astfel, exemplul de mai jos arată că trebuie să ciupim coarda cea mai subțire.

Exemplul 1

E||--0----||
B||-------||
G||-------||
D||-------||
A||-------||
E||-------||

Cifra"0" înseamna ciupirea liberă a corzii (cu alte cuvinte, nu apăsăm niciun fret cu degetul și lăsăm coarda să sune liber).

Să vedem un alt exemplu în care ciupim coarda cea mai groasă de pe chitară în poziția a treia. Așa cum observați, cifra "3" de mai jos indică faptul că apăsăm cea mai de jos coardă pe tasta a treia:

Exemplul 2

E||-------||  
B||-------||
G||-------||
D||-------||
A||-------||
E||---3---||

Cifrele care stau pe aceeaşi poziţie verticală în tabulatură reprezintă note care trebuie cântate concomitent. În Exemplul 3 de mai jos,  Observati ca toate notele sunt una peste alta, ceea ce înseamna ca trebuie ciupite sau atinse simultan. (Exemplul 3 vă arată de fapt un acord. Un acord înseamnă o combinație de sunete cântate într-o anumită armonie. Pentru acest exemplu, am ales probabil cel mai simplu acord care poate exista pe chitară: acordul Em.)

Exemplul 3

E||--0----||
B||--0----||
G||--0----||
D||--2----||
A||--2----||
E||--0----||

Tabulatura se citeşte şi se interpretează de la stânga la dreapta, asemanator oricărui text.

Exemplul 4

E||------------------0--------||
B||---------------0-----------||
G||------------0--------------||
D||---------2-----------------||
A||------2--------------------||
E||---0-----------------------||

În sfârșit, dacă punem împreună toate lucrurile pe care le-am aflat în această lecție, o tabulatură precum cea reprezentată în Exemplul 5 nu ar trebui să mai pună niciun fel de probleme. Acest exemplu demonstrează o bătaie simplă de vals reprezentată pe tabulatură:

Exemplul 5

E |-----0--0----|-----0--0----||
B |-----0--0----|-----0--0----||
G |-----0--0----|-----0--0----||
D |-------------|-------------||
A |-------------|--2----------||
E |--0----------|-------------||

Ca și concluzie, în această lecție am aflat cum să citim tabulaturile. Deși poate părea complicată la prima vedere, tabulatura reprezintă o notație mult mai simplă și ușor de înțeles decât notația standard muzicală. Datorită acestui lucru mai ales, este și foarte răspândită între chitariștii amatori.