Simboluri speciale în tabulatură

x (dead note)

Coarda marcată cu "x" fie nu se atinge, fie semnifică oprirea vibrației corzilor cu mâna dreaptă. În exemplul de mai jos, se aud doar acordurile Am E Am, fara niciun fel de efect suplimentar.

    Am  E Am
E |--0--0--0----||
B |--1--0--1----||
G |--2--1--2----||
D |--2--2--2----||
A |--0--2--0----||
E |-----0-------||

Mai jos, se aud aceleași acorduri, dar de data această a fost aplicat efectul de "dead note" (mâna dreaptă oprește vibrația corzilor imediat după ce le lovește):

    Am  E  Am
E |--x--x--x----||
B |--x--x--x----||
G |--x--x--x----||
D |--x--x--x----||
A |--x--x--x----||
E |-----x-------||

h (hammer on)

Efectul de "hammer on" presupune emiterea a două sau mai multe note cu o singură ciupitură a corzii. Mai precis, a două nota nu este ciupită cu mâna dreaptă; ea rezultă din prelungirea primei. În exemplul de mai jos, coarda este ciupită de trei ori, pentru fiecare notă în parte:

E |--0--2--3-------||
B |----------------||
G |----------------||
D |----------------||
A |----------------||
E |----------------||

Mai jos, e aceeași secvență, dar acum coarda e ciupită o singură dată. Cu alte cuvinte, a fost aplicat efectul de "hammer on" (observați litera "h" în tabulatură):

E |--0h-2h-3-------||
B |----------------||
G |----------------||
D |----------------||
A |----------------||
E |----------------||

p (pull off)

Efectul de "pull off" este același "hammer on", cu deosebirea că notele sunt ciupite nu de la cea mai joasă la cea mai înaltă, ci invers. În exemplul de mai jos, coarda a fost ciupită pentru fiecare notă în parte (nu există pull off):

E |--3--2--0-------||
B |----------------||
G |----------------||
D |----------------||
A |----------------||
E |----------------||

Mai jos, e aceeași secvență, dar acum coarda e ciupită o singură dată. Cu alte cuvinte, a fost aplicat efectul de "pull off" (observați litera "p" în tabulatură):

E |--3h-2h-0-------||
B |----------------||
G |----------------||
D |----------------||
A |----------------||
E |----------------||

s (slide)

Efectul de "slide" înseamnă alunecarea pe coardă (fie dinspre un sunet jos spre unul înalt, fie viceversa). În exemplul de mai jos, avem trei note ciupite liber, fără slide:

E |--2--5--7----||
B |-------------||
G |-------------||
D |-------------||
A |-------------||
E |-------------||

Mai jos, am aplicat efectul de "slide" (observați litera "s" în tabulatură):

E |--2s-5s-7----||
B |-------------||
G |-------------||
D |-------------||
A |-------------||
E |-------------||