Dirty Shirt – Hotii

Contribuție:  Flaviu


 

Acordajul AEADF#B (Drop A)

 
Intro:
        
 ----------------|----------------|----------------|----------------|
 ----------------|----------------|----------------|----------------|
 ----------------|----------------|----------------|----------------|
 -0--0-----------|-0--0-----------|-0--0-----------|-7-7-7-10-10-10-|
 -0--0-----------|-0--0-----------|-0--0-----------|-7-7-7-10-10-10-|
 -0--0-----0-0-0-|-0--0-----0-0-0-|-0--0-----0-0-0-|-7-7-7-10-10-10-|  x4


Vers 1:

 -------13-12----17-----|-------13-12-----------|-------13-12----17-----|-------13-12-----------|
 -15----------15--------|--15---------15--------|-15----------15--------|-15----------15--------|
 -----------------------|---------------14------|-----------------------|----------------14-----|
 -----------------------|-----------------------|-----------------------|-----------------------|
 -----------------------|-----------------------|-----------------------|-----------------------|
 -----------------------|-----------------------|-----------------------|-----------------------|


 -------17-15----20-----|-------17-15-----------|-------17-15----20-----|-----------------------|
 -18----------18--------|--18---------18--------|-18----------18--------|-18---17---15----------|
 -----------------------|---------------17------|-----------------------|-----------------------|
 -----------------------|-----------------------|-----------------------|-----------------------|
 -----------------------|-----------------------|-----------------------|-----------------------|
 -----------------------|-----------------------|-----------------------|-----------------------|


 -------13-12----17-----|-------13-12-----------|-------13-12----17-----|-------13-12-----------|
 -15----------15--------|--15---------15--------|-15----------15--------|-15----------15--------|
 -----------------------|---------------14------|-----------------------|----------------14-----|
 -----------------------|-----------------------|-----------------------|-----------------------|
 -----------------------|-----------------------|-----------------------|-----------------------|
 -----------------------|-----------------------|-----------------------|-----------------------|
 
 Refren:

 ----------------|----------------|----------------|----------------|
 ----------------|----------------|----------------|----------------|
 ----------------|----------------|----------------|----------------|
 -8--------------|-7--------------|-3--------------|-5--------------|
 -8--------------|-7--------------|-3--------------|-5--------------|
 -8--------------|-7--------------|-3--------------|-5--------------|
 
 ----------------|----------------|----------------|----------------|
 ----------------|----------------|----------------|----------------|
 ----------------|----------------|----------------|----------------|
 -8--------------|-7--------------|----------------|----------------|
 -8--------------|-7--------------|----------------|----------------|
 -8--------------|-7--------------|----------------|----------------|

Vers 2:

 ----------------|----------------|----------------|----------------|
 ----------------|----------------|----------------|----------------|
 ----------------|----------------|----------------|----------------|
 ----------------|----------------|----------------|----------------|
 -5----8-0----4--|-5----8-0----4--|-5----8-0-----4-|-5----0-2-----4-|
 ----------------|----------------|----------------|----------------|

 ----------------|----------------|----------------|----------------|
 ----------------|----------------|----------------|----------------|
 ----------------|----------------|----------------|----------------|
 ----------------|----------------|----------------|----------------|
 -5----8-0----4--|-5----8-0----4--|-5----8-0-----4-|-5----0-2-----4-|
 ----------------|----------------|----------------|----------------|
 
 ----------------|----------------|----------------|----------------|
 ----------------|----------------|----------------|----------------|
 ----------------|----------------|----------------|----------------|
 ----------------|----------------|----------------|----------------|
 -5----8-0----4--|-5----8-0----4--|-5----8-0-----4-|-5----0-2-----4-|
 ----------------|----------------|----------------|----------------|
  

 ----------------|----------------|-------------|-------------|
 ----------------|----------------|-------------|-------------|
 ----------------|----------------|-------------|-------------|
 ----------------|----------------|-------------|-------------|
 -5----8-0----4--|-5----8-0----4--|-5-5-5-7-7-7-|-8-8-8-9-9-9-|
 ----------------|----------------|-------------|-------------|

 ----------------|----------------|----------------|----------------|
 ----------------|----------------|----------------|----------------|
 ----------------|----------------|----------------|----------------|
 -5----8-0----4--|-5----8-0----4--|-5----8-0-----4-|-5----0-2-----4-|
 ----------------|----------------|----------------|----------------|
 ----------------|----------------|----------------|----------------|

 ----------------|----------------|-------------|-------------|
 ----------------|----------------|-------------|-------------|
 ----------------|----------------|-------------|-------------|
 -5----8-0----4--|-5----8-0----4--|-5-5-5-4-4-4-|-3-3-3-2-2-2-|
 ----------------|----------------|-------------|-------------|
 ----------------|----------------|-------------|-------------|

 ----------------|----------------|----------------|----------------|
 ----------------|----------------|----------------|----------------|
 ----------------|----------------|----------------|----------------|
 -8--------------|-7--------------|-10-------------|-9--------------|
 -8--------------|-7--------------|-10-------------|-9--------------|
 -8--------------|-7--------------|-10-------------|-9--------------|
 
 ----------------|----------------|----------------|----------------|
 ----------------|----------------|----------------|----------------|
 ----------------|----------------|----------------|----------------|
 -8--------------|-7--------------|----------------|----------------|
 -8--------------|-7--------------|----------------|----------------|
 -8--------------|-7--------------|----------------|----------------|

 Intro
 Vers 1
 Refren
 Intro

Metal  

Pentru a putea vota sau adăuda comentarii, e nevoie să te autentifici sau înregistrezi .

Susține tabulaturi.ro

De mai bine de zece ani, arhiva tabulaturi.ro este un serviciu gratuit. Totuși, menținerea și găzduirea serverului costă, iar publicitatea (care nu ne place nici nouă) acoperă doar o mică parte din cheltuieli. Dacă vrei și poți, susține acest proiect printr-o donație.