printeaza

Holograf – Ochii tai

Contribuţie: Florin Serban
Rating: ***** (25 voturi)
intro pian

Strofa:
                        
 Nu e usor, nu e nici greu
 Sa incerci acum sa te intorci din drum
 Poate ca eu, cu sufletul meu
 As avea atat de multe sa iti spun

Ref:
                               
 Insa ochii tai sa vor pierde in noapte
                      
 Lasandu-ma pe mine-n urma lor
       
 Stiu ca ochii tai vor fi doua soapte
 Si mi-e foarte dor, mi-e tare dor de ei

Solo:

e|-------------------------------------------------------------------------|
B|-----3/5----------------------------------------------3/5--------8-8\---|
G|--0------5-5/7---5-7-7/9--5-5--4h5p4\2h4-0-0h2-0---0------5-5/7---------|
D|-------------------------------------------------------------------------|
A|-------------------------------------------------------------------------|
E|-------------------------------------------------------------------------|

 
e|------------------------------------8--8\-8\-7-7\-3-3-----------------|
B|---6p5-6--5------5-----------------10-10\-8\-8-8\-3-3--1---3/5\--1-1-|
G|------------5------5h7---7p5p4-5-7-----------------------2---------------|
D|---------------7---------------------------------------------------------|
A|-------------------------------------------------------------------------|
E|-------------------------------------------------------------------------|


e|----------0----0---0-----------------------------------------------------|
B|----1-1/3---3----3-------3/5-------8-8\--6-5-6--5------5----------------|
G|--2--------------------0-----5-5/7----------------5------5h7-------------|
D|-----------------------------------------------------7-------------------|
A|-------------------------------------------------------------------------|
E|-------------------------------------------------------------------------|

Strofa:
  Vreau sa simt caldura ta cand noaptea va veni
  Doar stelele sa stie c-ai sosit
  Parul tau va fi iar ud de roua din zori de zi
  Si as vrea sa pot sa-ti spun bine-ai venit

Ref:
Etichete:

Acorduri

Comentarii

  • 28.05.2012 04:44
    In ultimul vers din refren acordurile sunt F G C, in rest este foarte bine..