Taine – Inger sau Demon

(2 voturi)

Contribuție:  Iorgu Mihai


...aceasta melodie este scoasa de mine dupa ureche...
deci nu suna peste tot perfect

Intro
tobe si dupa bass
---------------------------------------
---------------------------------------
---------------7-----6--7--9-----------
---------------------------------------


---------------------------------------
---------------------------------------
---------------------------------------
---------------------------------------
---2-2-2----2-2------------------------
---0-0-0----0-0------------------------

Versuri
---------------------------------------
---------------------------------------
---------------------------------------     X2
---------9-----8-----9----11-----------
---------7-----6-----7----9------------
---0--0-----0-----0-----------0--------
PM|----|   PM    PM          PM


---------------------------------------
---------------------------------------
--------------------------------------
---------------------------------------
------7--9--7--9--6--------------------
---------------------------------------



Refren
---------------------------------------
---------------------------------------
---------------------------------------
---------------------------------------
----10------7----9----------------------
----8-------5----7----------------------



----------------------------------------
----------------------------------------
----------------------------------------
----------------9-----------------------   X4
----------------7--------------5--3--5--
--0-0-0-0-0-0-------0-0-0-0-0-----------
PM|----------|   PM|----------|  


----------------------------------------
----------------------------------------
----------------------------------------
----------------------------------------
------------------------5--3--5---------
--0--2--0--3--0--4----------------------


----------------------------------------
----------------------------------------
----------------------------------------   
----------------------------------------   X4  
----------------7~~-----------5--3--5---
--0-0-0-0-0-0-------0-0-0-0-0-----------
PM|----------|   PM|---------|


----------------------------------------
----------------------------------------
----------------------------------------
----------------------------------------
------------------------5--3--5---------
--0--2--0--3--0--4----------------------


----------------------------------------
----------------------------------------
----------------------------------------
----------------------------------------   X4
-------------------------------5--3--5--
--0-0-0-0-0-0-------0-0-0-0-0-----------
PM|----------|     PM|----------|


-----------------------------------------
-----------------------------------------
-----------------------------------------
-----------------------------------------
------5----3-----------------------------
-----------------6----5------------------


-----------------------------------------      
-----------------------------------------      
-----------------------------------------
-----------------------------------------  X4 
------------------------7----------------
---0--0--0--0--0--0--0--0----------------
PM|--------------------|

-----------------------------------------
-----------------------------------------
-----------------------------------------
-----------------------------------------
------5----3-----------------------------
-----------------6----5------------------



-----------------------------------------      
-----------------------------------------      
-----------------------------------------
-----------------------------------------  X4 
------------------------7----------------
---0--0--0--0--0--0--0--0----------------
PM|--------------------|

-----------------------------------------
-----------------------------------------
-----------------------------------------
-----------------------------------------
------5----3-----------------------------
-----------------6----5------------------


Solo  ???


INGER SAU DEMON

Stiu ce gandesti
Eu stiu tot ce simti
Adanc patrund in gand
Te vad acum plangand 

Regreti ce-ai facut
Dar nu e deajuns
S-o iei de la-nceput
Nu-i totul pierdut

Ingusta e calea
Prea greu de ajuns
Tu auzi chemarea
Se astepta un raspuns.

Te-aud azi cersind
Ca vrei indurare
Maine ai uitat
Dar sufletu-ti moare

In praf ti-e faptura
Gandul a dovedit.
Tu esti doar masura
Unui drum de-implinit

Ingusta e calea
Prea greu de ajuns
Tu auzi chemarea
Se astepta un raspuns.

Ochii plini de ura,
De lacrimile tale
Reci si mult prea multe
Nu-ti vor fi iertare.

Sarutul mortii asteapta
Sufletul rapus
Te pot salva acum
Dar nu e deajuns...

Metal  

Pentru a putea vota sau adăuda comentarii, e nevoie să te autentifici sau înregistrezi .