Chester – Stiu exact care e problema mea

(1 voturi)

Contribuție:  Alexandru H


Astept pareri.. :)



E---3-3---3-3-3-3-3---3-3-3-3-3-3-----------------------------------------------
A---5-5---5-5-5-5-5---5-5-5-5-5-5----7-7---7-7-7-7-7-----9---9-9-9-9-9-9-9------   Intro-ul.
D---5-5---5-5-5-5-5---5-5-5-5-5-5----9-9---9-9-9-9-9-----11--11-11-11-11-11-----
G------------------------------------9-9---9-9-9-9-9-----11--11-11-11-11-11-----
B-------------------------------------------------------------------------------
e-------------------------------------------------------------------------------


E--------------------------
A--------------------------
D---5-7-55-7-555-7-5-------     se repeta..
G--------------------------
B--------------------------
e--------------------------

                          
De ar fi o zi sa poti fi altfel

                                
Sa nu mai fi speriat si sa devii altcineva

 G5                    D5
Oare ai privi, totul la fel

  C5            A5    B5    C5      D5
Oare ai avea, alt camin decat mintea ta

G5                   D5
Si te-ai gandit si ai visat

  C5                        A5   B5    C5    5D
Si ti-ai face si loc prin toata zapaceala asta, da

  G5                   D5
Sa nu-ti mai simti inima grea

       C5              A5  B5  C5  D5
Daca pentru prima oara s-o simti mai usoara
     
 E5         G5          D5         C5
Si toate noptile triste pe care le-ai avut

  E5              G5
La fel de multe precum

D5              A5     B5 C5 D5 G5
Toate paharele pe care le-am baut


Nu scuipa in vant, nu mai privi in pamant
Si trec si tot si toate pe langa tine, iar tu stai razand
Te poti uita la soare, vei fi surprins nu doare
Mai bine asa, aici n-ai ce vedea
 
E--------------------------
A--------------------------
D---5-7-55-7-555-7-5-------     se repeta..
G--------------------------
B--------------------------
e--------------------------


 G5                  D5
Si nu mai sti ce sa mai faci
                C5          A5 B5 C5 D5
Nu mai vezi nici padurea de atatia copaci

   G5             D5
Nu mai poti sa te impaci 

                           C5             A5   B5   C5     D5   
Si nu mai sti sa te impaci sa-ti ajunga sa te prinzi din urma

  E5         G5          D5         C5
Si toate noptile triste pe care le-ai avut
E5              G5
La fel de multe precum

D5              A5     B5 C5 D5 G5
Toate paharele pe care le-am baut



Nu scuipa in vant, nu mai privi in pamant
Si trec si tot si toate pe langa tine iar tu stai razand
Te poti uita la soare vei fi surprins nu doare
Mai bine asa, aici n-ai ce vedea
   


E---3-3---3-3-3-3-3---3-3-3-3-3-3-----------------------------------------------
A---5-5---5-5-5-5-5---5-5-5-5-5-5----7-7---7-7-7-7-7-----9---9-9-9-9-9-9-9------   
D---5-5---5-5-5-5-5---5-5-5-5-5-5----9-9---9-9-9-9-9-----11--11-11-11-11-11-----
G------------------------------------9-9---9-9-9-9-9-----11--11-11-11-11-11-----
B-------------------------------------------------------------------------------  
e-------------------------------------------------------------------------------
 DUPA...VIN URMATOARELE ACORDURI ..   A5     B5 C5 D5 G5  ca pe versul  ''Toate paharele.. ''




 G5           D5
Cade tot peste tine

C5       A5 B5 C5 D5
Cade intre rau si bine

 G5              D5
Ai incetat sa mai crezi

 C5            A5   B5   C5   D5
Stai pe un loc si astepti sa vezi

  E5                     A5
Cand soarele apune, intr-o lume intoarsa pe dos

 C5          D5          G5
Intr-o lume intoarasa pe dos

 C5          D5          G5
Intr-o lume ïntoarasa pe dos...

Pentru a putea vota sau adăuda comentarii, e nevoie să te autentifici sau înregistrezi .

Acorduri