Byron – Granita-n Ranita

(1 voturi)

Contribuție:  Kaos


Introul si partea melodica din Am:

Strum pe Am (toate corzile individual in jos)
sus|sus|sus|sus|jos|sus
--0--0--0---0--0-------------------
--3--3--1---1--1------1------------
--2--2--2---2--2---0h2-2-----------   x1
--2--2--2---2--2-------------------
--0--0--0---0--0-------------------
--0--0--0---0--0-------------------
jos|sus|jos|sus|sus|sus|sus|jos|sus
--0--0--0--0--0--0---0--0-------------------
--1--1--1--3--3--1---1--1------1------------
--2--2--2--2--2--2---2--2---0h2-2-----------   x3
--2--2--2--2--2--2---2--2-------------------
--0--0--0--0--0--0---0--0-------------------
--0--0--0--0--0--0---0--0-------------------


Eu mi-aş băga
                                   
Graniţa-n raniţă, ţara în raniţă
             
Şi… gata

(Restul melodiei este lafel ca prima parte)
  
M-aş stabili
Lângă o altă graniţă, le-aş scoate din raniţă
Şi… gata

I-aş păcăli, că n-ar şti
Că am o ţara-n rănită
Şi-o graniţă-n rănită
Şi… gata

Eu mi-aş băga
Viaţa în raniţă

M-aş stabili
Lângă o altă raniţă
Şi… gata

Rock  

Ultima actualizare:  10.05.2015

Comentarii

Pentru a putea vota sau adăuda comentarii, e nevoie să te autentifici sau înregistrezi .

Acorduri