Bucovina – Sub Piatra Doamnei (Intro)

Contribuție:  Stefan30


PM-------------------------------------|
    __3__ __3__ __3__ __3__  __3__ __3__
e|-------------------------|---------------|
B|-------------------------|---------------|
G|-------------------------|---------------|
D|-------------------------|-4-4-4-4-4-4--4|
A|--------------4-4-4-4-4-4|---------------|
E|--2-2-2-2-2-2------------|---------------|
  

                                                       __3__     
e|---------------------------|------------------------------------|
B|---------------------------|------------------------------------|
G|---------------------------|----1--2--4--2--1-------------------|
D|-----------------2--4--2--4|-4-----------------2--4--4-4-4--3--3|
A|-----4--2-----4------------|------------------------------------|
E|--2--------5---------------|------------------------------------|

e|---------------------------|--------------------------|
B|---------------------------|--------------------------|
G|--------1--2--1------------|--------------------------|
D|-/4--4-----------4--2--4---|--------------------------|
A|--------------------------4|-4--2---------------------|
E|---------------------------|-------5--4--2--4--5--4--2|
                                                                 __3__         
e|--------------------------------|---------------------------------------------|
B|--------------------------------|-----9--10--12--10--9------------------------|
G|--------------------9--11--9--11|-11-------------------9--11--11-11-11--10--10|
D|-----11--9------11--------------|---------------------------------------------|
A|-/9---------12------------------|---------------------------------------------|
E|--------------------------------|---------------------------------------------|

e|--------------------------------|--------------------------------|
B|----------9--10--9--------------|--------------------------------|
G|-/11--11------------11--9--11---|--------------------------------|
D|------------------------------11|-11--9--------------------------|
A|--------------------------------|--------12--11--9--11--12--11--9|
E|--------------------------------|--------------------------------|


 __3__ = Triolet


************************************

| /   Slide up
| PM  Palm mute

************************************

Metal  

Pentru a putea vota sau adăuda comentarii, e nevoie să te autentifici sau înregistrezi .