Bucovina – Luna peste varfuri (solo GuitarPro)


Varianta mea pentru solo Luna peste varfuri

E |----------------------------|
B |----------------------------|
G |----------------------------|
D |--10----10-12-13----10------|
A |----------------------------|
E |----------------------------|


--------------------------------------------------------------------------------
--------------------------------------------------------------------------------
--12----------------------12h---13h------12-------10----------------------------
--------------------------------------------------------------------------13----
--------------------------------------------------------------------------------
--------------------------------------------------------------------------------


--------------------|----------------------------|----------------|
--------------------|----------------------------|----------------|
--------------------|--------------10------------|--10s12-12------|
--------------------|--12----12-13-------12-13---|----------------|
--------------------|----------------------------|----------------|
--------------------|----------------------------|----------------|


----------------------------|
----------------------------|
----------------------------|
--10----10-12-13----10------|
----------------------------|
----------------------------|


--------------------------------------------------------------------------------
--------------------------------------------------------------------------------
--12----------------------12h------13h---12-------10----------------------------
--------------------------------------------------------------------------13----
--------------------------------------------------------------------------------
--------------------------------------------------------------------------------


--------------------|----------------------------|----------------|
--------------------|----------------------------|----------------|
--------------------|--------------10------------|----------------|
--------------------|--12----12-13-------12-13---|--10s8--10------|
--------------------|----------------------------|----------------|
--------------------|----------------------------|----------------|


----------------------------|----------------------------|
--------------13------------|--11----11------------------|
--12----12-13-------12------|-----------13-12----10------|
----------------------------|----------------------------|
----------------------------|----------------------------|
----------------------------|----------------------------|


----------------------------|----------------|----------------------------|
----------------------------|----------------|--------------13------------|
--------------10------------|--10s12-12------|--12----12-13-------12------|
--12----12-13-------12-13---|----------------|----------------------------|
----------------------------|----------------|----------------------------|
----------------------------|----------------|----------------------------|


----------------------------|----------------------------|----------------|
--11----11------------------|----------------------------|----------------|
-----------13-12----10------|--------------10------------|----------------|
----------------------------|--12----12-13-------12-13---|--10s8--10-8----|
----------------------------|----------------------------|----------------|
----------------------------|----------------------------|----------------|


----------------|----------------------------|----------------------------||
----------------|----------------------------|----------------------------||
----------------|----------------------------|----------------------------||
--10-------10---|--10-10-10----10-10-10------|--10-10-10h8----------------||
----------------|----------------------------|----------------------------||
----------------|----------------------------|----------------------------||

Rock  

Pentru a putea vota sau adăuda comentarii, e nevoie să te autentifici sau înregistrezi .