GUZ – Prefer

Contribuție:  AndreiPara


Intro:
                

Strofa:
Bm
    Prefer sa te pictez gri
A
    Cand dormi si nu stii
D
    Prefer sa te scriu simplu
   F#m
Prefer sa-ti citesc gandul
Bm
Iti vad visul
A                         D
  In somn plutesti prin nori
Prefer sa cred ca cu mine
Nu cu oricine
   F#m                 Bm
Prefer sa stiu ca ma iubesti
                     A
Alba ca Zapada din povesti 
Astepti sarutul ca sa te trezesti
D
   Prefer sa ne gandim la bebe multi
   F#m
Prefer sa ne simtim adulti
Bm               A
    Sa topim munti
                 D
Prefer sa iti soptesc
Sa te privesc
     F#m
Imi place cum ma asculti
Bm       A                  G
   Imi place cand ii place tace
      Em      A     Bm
Imi place ca ma place
     A                     G
Imi place ca ne-am cunoscut
          Em            A          Bm
Imi place tot la ea din ce in ce mai mult
      A                  G
Imi place cand ii place tace
    Em    A       Bm
Imi place ca ma place
      A                  G
Imi place ca ne-am cunoscut
          Em            A           Bm
Imi place tot la ea din ce in ce mai mult

Linia de chitara de dupa refren:


E    ---------------------------------------------
B    -7-------------------------------------------
G    ----9--7--6----9--7--6-----------------------
D    ------------------------7--9----7--5--4-----4
A    -----------------------------------------7---
E    ---------------------------------------------    


E    ------------------------------------------------
B    -7------------------------------------------5/7-
G    ----9--7--6----9--7--6-------------4--6--7------
D    ------------------------7--9----7---------------
A    ------------------------------------------------
E    ------------------------------------------------

x2

Si tot asa...


Strofa:
Prefer sa-ti arat lumea
Ca Bonnie si Clyde
Liber voiai

Voiai sa ne cunune luna
Bine, da’ pentru totdeauna
Nebun, tu nebuna
Imi place ca ma corectezi intruna

Imi place ca iti place gluma
Imi place ca nu semeni cu niciuna
Imi placi, prefer sa te alint
Imi place ca dansezi cand cant

Ca te cunosc de mult
Prefer s-o fac pe orbul
Studiindu-ti corpul
Prefer sa te ascult

Cat de simplu n-ar parea
Suflarea ma rupe
Prezenta ma rupe
Privirea ta

Cat de simplu n-ar parea
Suflarea ma rupe
Prezenta ma rupe
Privirea ta


Linia de chitara de mai sus x2


Refren:
Imi place cand ii place tace
Imi place ca ma place
Imi place ca ne-am cunoscut
Imi place tot la ea din ce in ce mai mult

Imi place cand ii place tace
Imi place ca ma place
Imi place ca ne-am cunoscut
Imi place tot la ea din ce in ce mai mult

Pentru a putea vota sau adăuda comentarii, e nevoie să te autentifici sau înregistrezi .

Acorduri