Trooper – Fara Tine

Contribuție:  Oby


Chitara Electrica : Flanger
Tuning: Eb Ab Db Gb Bb Eb

                                          Intro

eb-------------|---------------|------------|-------------|--------7-----|--------------|
Bb---------7---|--------7------|--------7---|-------7-----|--------------|--------7-----|
Gb---6--7------|--6--7---------|--6--7------|-6--7-----7--|--6--7-----7--|--6--7--------|
Db-------------|-----------9---|------------|-------------|--------------|-----------9--|
Ab-------------|---------------|------------|-------------|--------------|--------------|  
Eb-------------|---------------|------------|-------------|--------------|--------------|

eb-------------|--------7------|------------|-------------|--------7-----|--------------|
Bb--------7----|---------------|-------7----|--------7----|--------------|--------7-----|
Gb--6--7-----7-|--6--7-----7---|-6--7-----7-|--6--7-----7-|--6--7-----7--|--6--7-----7--|
Db-------------|---------------|------------|-------------|--------------|--------------|
Ab-------------|---------------|------------|-------------|--------------|--------------|  
Eb-------------|---------------|------------|-------------|--------------|--------------|

eb-------------|
Bb---------7---|
Gb---6--7------|
Db------------9|
Ab-------------| 
Eb-------------|

Chitara Acustica
Tuning: Eb Ab Db Gb Bb Eb

Pe intro: Bm D A F#m G A 

           Vers 1

Bm           D
  Ultima oară când am râs
A                  F#m
  Eram doar noi doi, singuri pe pământ,
        G               A             Bm
  Ca un vis, mult prea repede te-ai stins
Bm           D
  Ultima oară când am plâns
A                      F#m
  Te strângeam în braţe, doar în gând
    G               A               Bm
  Şi voiam să îţi spun cât mi-e de dor

Chitara Electrica : Distors : Power Chords
Tuning: Eb Ab Db Gb Bb Eb            
                 
                 Refren
                                                        D    x 5 7 7 x x
        D          G    A       F#       G 
  Înc-o zi fără tine,      fără tine                    G    3 5 5 x x x
        A             B         A
  Fără aripi nu mai văd                                 A    x 0 2 2 x x
        D          G    A       F#       G
  Înc-o zi fără tine,      fără tine                    F#   2 4 4 x x x
        A             B
  Fără aripi nu mai văd                                 B    x 2 4 4 x x    
   
Chitara Electrica : Flanger
Tuning: Eb Ab Db Gb Bb Eb

eb-------------|---------------|--------7---|-------------|--------------|---------7----|
Bb---------7---|--------7------|------------|-------7-----|--------7-----|--------------|
Gb---6--7------|--6--7-----7---|--6--7----7-|-6--7-----7--|--6--7-----7--|--6--7-----7--|
Db-----------9-|---------------|------------|-------------|--------------|--------------|
Ab-------------|---------------|------------|-------------|--------------|--------------|  
Eb-------------|---------------|------------|-------------|--------------|--------------|

eb-------------|---------------|
Bb---------7---|--------7------|
Gb---6--7----7-|--6--7---------|
Db-------------|------------9--|
Ab-------------|---------------| 
Eb-------------|---------------|

Chitara Acustica
Tuning: Eb Ab Db Gb Bb Eb
          
           Vers 2

Bm           D
  Ultima oară când te-am atins
A                    F#m
  N-am să uit vreodată ce mi-ai promis
          G          A             Bm
  N-am să uit că şi tu simţeai la fel
Bm           D 
  Ultima oară când îţi vorbesc
A           F#m
  Este acuma, vă părăsesc
          G           A          Bm
  Şi am să plec unde sufletul e viu
                                                   
Chitara Electrica : Distors : Power Chords
Tuning: Eb Ab Db Gb Bb Eb            
                 
                 Refren
                                                        D    x 5 7 7 x x
        D          G    A       F#       G 
  Înc-o zi fără tine,      fără tine                    G    3 5 5 x x x
        A             B         A
  Fără aripi nu mai văd                                 A    x 0 2 2 x x
        D          G    A       F#       G
  Înc-o zi fără tine,      fără tine                    F#   2 4 4 x x x
        A             B
  Fără aripi nu mai văd                                 B    x 2 4 4 x x                                                       

Chitara Acustica
Tuning: Eb Ab Db Gb Bb Eb
              
                Vers 3
             Bm         G              A
  Ai să mă ierţi pentru anii ce-au trecut
             Bm           G            A
  Ai să mă ierţi pentru tot ce ţi-am făcut
             Bm         G          A  
  Ai să mă ierţi pentru ultimul sărut
             Bm              G               A
  Ai să mă ierţi, acum când simt c-am să mă duc

Rock  

Ultima actualizare:  18.02.2019

Pentru a putea vota sau adăuda comentarii, e nevoie să te autentifici sau înregistrezi .