The Motans – Mr. Tort

(1 voturi)

Contribuție:  DDenis02


    

Em
Eu sunt micul tau desert
D
Tu esti fructul interzis
A
Nu-mi ajungi in doze mici
Dupa bis mai vreau un bis

Em
Vreau sa fii a mea de tot
D
Oh, Doamne cat am incercat
A
Dar ciresele ca tine
Nu cad usor din copac

Em
Eu am dragostea pe tava
D
Tu, tacamul potrivit
A
Stii ca ale tale buze-s
Tot ce am acum in gand

Em
Pot sa par un pic nebun
D
Pot sa par mai mult ciudat
A
Zbor ca visele si astept
Tu sa faci macar un salt


     
Caci viata mea e dulce
    			     
Dar n-are niciun haz fara tine
		       	
Vreau sa fii cireasa de pe mine
	   			  
Cu zambete si saruturi dulci as vrea
Tu sa fii cireasa mea

G		      Bm
  E atat de simplu
    A
Cirese fara tort exista
	     D     G
Tort fara cirese, nu
Bm                 A
   Si tot ce-as vrea
	     D      G
Tu sa fii cireasa mea

              Bm
E atat de simplu
    A
Cirese fara tort exista
            D       G
Tort fara cirese, nu
Bm                 A
   Si tot ce-as vrea
Tu sa fii cireasa mea


e|-------------------------------------------------------------------|
B|-------------------------------------------------------------------|
G|---------------------0---------------------------------------------|	x2
D|----4-0---0h2-0--0-4---4-2-0----4-0---0h2-0------0-----------------|
A|-2------2--------------------4------0--------0-4---4-2-0-----------|
E|-------------------------------------------------------------------|


  
Insectele-n stomacul meu
Si clipele de neuitat

As vrea sa le intind
     
Ca pe-o guma de mestecat

    Em
Sa le lipesc in par
      A
Si sa-ti lipesc si tie
Bm
S-avem aceeasi guma-n cap
Ce tine o vesnicie

   Em                   A
O, Doamne, cat am incercat
     Bm
Sa o fac sa inteleaga
        D
Ca i-as da lumea intreaga
Em                A         Bm 
I-as fi daruit indata si chitara mea
                 D
Si sufletul si piesa preferata

      G
Caci viata mea e dulce
    Bm                       A
Dar n-are niciun haz fara tine
                        D       G
Vreau sa fii cireasa de pe mine
             Bm                    A
Cu zambete si saruturi dulci as vrea
Tu sa fii cireasa mea

G      	 	     Bm
   E atat de simplu
   A
Cirese fara tort exista
	     D      G
Tort fara cirese, nu
Bm 		   A
   Si tot ce-as vrea
             D       G
Tu sa fii cireasa mea

	      Bm      G
E atat de simplu
  A
Cirese fara tort exista
             D     G
Tort fara cirese, nu
Bm                 A
   Si tot ce-as vrea
Tu sa fii cireasa mea



e|-------------------------------------------------------------------|
B|-------------------------------------------------------------------|
G|---------------------0---------------------------------------------|	x2
D|----4-0---0h2-0--0-4---4-2-0----4-0---0h2-0------0-----------------|
A|-2------2--------------------4------0--------0-4---4-2-0--2--------|
E|-------------------------------------------------------------------|

Pop  

Pentru a putea vota sau adăuda comentarii, e nevoie să te autentifici sau înregistrezi .

Acorduri