Sport sângeros III – Ne vom intalni

(1 voturi)

Contribuție:  anonime


Intro 
e|----------------------------------------|
B|----------------------------------------|
G|-------12----12----------12----12-------|      
D|-----10----10----10----10----10----10---| x6  
A|---10----10----10----12----12----12-----|
E|----------------------------------------|
 
e|-----------------------------------------------------------------------|
B|-----------------------------------------------------------------------|
G|-------------10----10-----------12----12-----------10----10------------|  
D|-----------------------------------------------------------------------|  
A|---12-10---10----10-----------12----12-----------10----10--------------|
E|---------13----13-----13-15-15----15-----15-13-13----13-----13-15-15---|
 
 
*** In timpul melodiei canta acordurile:
 
            
E|---0---0---1---3---|
B|---1---1---1---3---|
G|---2---0---2---4---|
D|---2---2---3---5---|
A|---0---3---3---5---|
E|-----------1---3---|
 
*** in loc de Bbm#5 se poate canta, suna exact la fel 
[depinde care vi se pare mai comod]
    
E|--3--|
B|--3--|
G|--0--|
D|--0--|
A|--2--|
E|--3--|
 
                         
Pe Marin l-a vazut pentru prima oara
              
Mergea prafuit pe un drum de tara
Ochii i s-au luminat cand a observat
Ca Marin o privea cu un gand necurat
Cu un gand necurat si ii spunea...
 
*** Inainte de refren
e|--8-8-8-8-7-7-7-7-5-5-5-5-3-3-3--|
B|--8-8-8-8-7-7-7-7-5-5-5-5-3-3-3--|
 
[_refren_]
        Ne vom intalni, ne vom intalni
        Si vom face copii
 
S-au intalnit la balci a doua zi in sat
Dar Marin parea cam suparat
Si Florica in tol de sarbatoare
Hai Marine in fan la o plimbare
 
Caci...
 
[_refren_]
        Ne vom intalni, ne vom intalni
        Si vom face copii
Dar ea-i spunea:
 
*** Partea din Iris - Strada Ta
E|----------------------------------|
B|----------------------------------|
G|---5-5-5--------------------------|
D|---5-5-5---5-5-5--3-3-3---5-5-5---|
A|---3-3-3---5-5-5--3-3-3---5-5-5---|
E|-----------3-3-3--1-1-1---3-3-3---|
 
[_refren_]
        Ne vom intalni, ne vom intalni
        Si vom face copii
 
Te voi astepta
Voi veni pe strada ta
Te astept mereu
Fara tine mi-e greu

Comentarii

Pentru a putea vota sau adăuda comentarii, e nevoie să te autentifici sau înregistrezi .

Acorduri