Chester – Flo

(4 voturi)

Contribuție:  ghit razvan


Piesa se face in ritm de ska pe urmatoarele acorduri:
     
                          
                 
e|------5--------4-------2--------------------|
B|------5--------5-------2--------------------|
G|------6--------6-------2--------7-----------|
D|------7--------6-------4--------7-----------|
A|------7--------4-------4--------5-----------|
E|------5----------------2--------------------|

Chitara solo:

e|------------------------------|
B|------------------------------|
G|--------------6--6--444-6-4---|
D|--7---7-6---6---------------7-|
A|------------------------------|
E|------------------------------|


                  
Flo    incearca sa-ntelegi
                     
Ca nu   mai ai unde sa mergi
                
In camera ta si-n minte
             
Totu-i dezordonat
                                
WC-ul    iar s-a infundat, s-a infundat


                
Si daca ai spune asta lui flo
         
Nu i-ar pasa
               
Ia du-te bah si mori in c*ca
                 
Ce ai tu cu viata mea
         
Caci ea e ea
           
Si fata nimanui
                                                  
Flo zambeste soarelui, zambeste soarelui,        zambeste soarelui


Flo acum incepi sa alergi
Si totu-ti pare absurd
Oricat ai vrea sa negi
In viata ta si in suflet
Toate au clacat
Si nu apare nimeni 
Sa te scoata din rahat, din rahat


Pe flo o deranjeaza indiferentza
De ce nu mai face nimeni, nimeni diferentza
Caci ea viseaza
Si ar vrea o viata in doi
Si priveste inspre luna
Cu lacrimi in ochi, cu lacrimi in ochi


Riff-ul dinspre final:
e|--------------------------------------------------------------------|
B|--------------------------------------------------------------------|
G|-14-14-14/13--13---14-14-14/13--13---14-14-14/13--13---18-16-13-14--|
D|-x--x--x-/x---x----x--x--x-/x---x----x--x--x-/x---x----x--x--x--x---|
A|-12-12-12/11--11---12-12-12/11--11---12-12-12/11--11---16-14-11-12--|
E|--------------------------------------------------------------------|

Pentru a putea vota sau adăuda comentarii, e nevoie să te autentifici sau înregistrezi .

Acorduri