Focul Viu – Dacii Liberi

(15 voturi)

Contribuție:  ghit razvan


ACORDURI FOLOSITE:

      Am     G     Em    C
e|-----0-----3-----0-----0-----|
B|-----1-----0-----0-----1-----|
G|-----1-----0-----0-----0-----|
D|-----2-----0-----2-----2-----|
A|-----0-----2-----2-----3-----|
E|-----------3-----0-----------|


INTRO:

e|----------0----------|
B|-----0h1-----1-------|
G|---------------2-----|
D|---------------------|
A|--0------------------|
E|---------------------|


                       
Coboara dacii liberi din columna
                          
Prin barbi si plete suiera in vant     X2
                  
Aduc cu ei sarutul libertatii
                              
Si-al permanentei ce rasuna-n cant


                          
Ref: Cand auzi de chiu si vai
                   
     Puneti seile pe cai        
                          
     Sa cantam in vechiul grai     X2
                        
     Turai, turai si noah haaai

                      
     Haaaaaaaaaaaaaaaaaaaaai


Se-aude tropotul de cal in noapte
Printre paduri stinghere si pustii   X2
Vuieste prin galopul ce-l starneste
Iubirea de mosie si de fii



Ref: X2


Suntem urmasi de daci si suntem liberi
Caci libertatea ne-a fost crudul rod
Murind am rupt in veacuri mii de lanturi
Ce ne-au robit mereu de-atatea ori


Lasam sa treaca peste noi durerea
Si focul ce se-ncinge peste timp
Caliti de-atata ura si robie
Strigam ca libertatea-i lucru sfant

Ref: X2

Folk  

Ultima actualizare:  22.11.2009

Comentarii

Pentru a putea vota sau adăuda comentarii, e nevoie să te autentifici sau înregistrezi .

Acorduri